ISO-10303-21;
HEADER;
FILE_DESCRIPTION (( 'STEP AP203' ),
    '1' );
FILE_NAME ('0413.STEP',
    '2022-07-07T17:33:28',
    ( '' ),
    ( '' ),
    'SwSTEP 2.0',
    'SolidWorks 2019',
    '' );
FILE_SCHEMA (( 'CONFIG_CONTROL_DESIGN' ));
ENDSEC;

DATA;
#1 = AXIS2_PLACEMENT_3D ( 'NONE', #65, #163, #132 ) ;
#2 = ORIENTED_EDGE ( 'NONE', *, *, #15, .T. ) ;
#3 = ORIENTED_EDGE ( 'NONE', *, *, #201, .F. ) ;
#4 = APPROVAL ( #125, 'NEURÈENÝ' ) ;
#5 = DIRECTION ( 'NONE',  ( -1.000000000000000000, 0.000000000000000000, 0.000000000000000000 ) ) ;
#6 = CARTESIAN_POINT ( 'NONE',  ( 0.000000000000000000, 0.000000000000000000, 5.000000000000000000 ) ) ;
#7 = CARTESIAN_POINT ( 'NONE',  ( 0.000000000000000000, 0.000000000000000000, 0.000000000000000000 ) ) ;
#8 = DIRECTION ( 'NONE',  ( 0.000000000000000000, 0.000000000000000000, 1.000000000000000000 ) ) ;
#9 = VERTEX_POINT ( 'NONE', #224 ) ;
#10 = FACE_OUTER_BOUND ( 'NONE', #93, .T. ) ;
#11 = DIRECTION ( 'NONE',  ( -0.000000000000000000, -0.000000000000000000, -1.000000000000000000 ) ) ;
#12 = VERTEX_POINT ( 'NONE', #26 ) ;
#13 = AXIS2_PLACEMENT_3D ( 'NONE', #6, #191, #97 ) ;
#14 = DIRECTION ( 'NONE',  ( 0.000000000000000000, 0.000000000000000000, 1.000000000000000000 ) ) ;
#15 = EDGE_CURVE ( 'NONE', #12, #48, #121, .T. ) ;
#16 = AXIS2_PLACEMENT_3D ( 'NONE', #227, #50, #33 ) ;
#17 = DATE_TIME_ROLE ( 'creation_date' ) ;
#18 = CALENDAR_DATE ( 2022, 7, 7 ) ;
#19 = CC_DESIGN_DATE_AND_TIME_ASSIGNMENT ( #198, #17, ( #59 ) ) ;
#20 = PERSON_AND_ORGANIZATION ( #173, #37 ) ;
#21 = CLOSED_SHELL ( 'NONE', ( #46, #124, #219, #144, #234, #79, #164 ) ) ;
#22 = PERSON_AND_ORGANIZATION ( #173, #37 ) ;
#23 = AXIS2_PLACEMENT_3D ( 'NONE', #7, #114, #188 ) ;
#24 = CC_DESIGN_PERSON_AND_ORGANIZATION_ASSIGNMENT ( #214, #42, ( #127 ) ) ;
#25 = CARTESIAN_POINT ( 'NONE',  ( 0.000000000000000000, 0.000000000000000000, 5.000000000000000000 ) ) ;
#26 = CARTESIAN_POINT ( 'NONE',  ( -4.000000000000000000, 0.000000000000000000, 5.000000000000000000 ) ) ;
#27 = EDGE_LOOP ( 'NONE', ( #148, #190 ) ) ;
#28 = CC_DESIGN_APPROVAL ( #88, ( #59 ) ) ;
#29 = CARTESIAN_POINT ( 'NONE',  ( -4.000000000000000000, 0.000000000000000000, 165.0000000000000000 ) ) ;
#30 = VERTEX_POINT ( 'NONE', #108 ) ;
#31 = LINE ( 'NONE', #92, #179 ) ;
#32 = EDGE_CURVE ( 'NONE', #229, #30, #130, .T. ) ;
#33 = DIRECTION ( 'NONE',  ( -1.000000000000000000, 0.000000000000000000, 0.000000000000000000 ) ) ;
#34 = ORIENTED_EDGE ( 'NONE', *, *, #39, .T. ) ;
#35 = UNCERTAINTY_MEASURE_WITH_UNIT (LENGTH_MEASURE( 1.000000000000000082E-05 ), #58, 'distance_accuracy_value', 'NONE');
#36 = AXIS2_PLACEMENT_3D ( 'NONE', #49, #204, #207 ) ;
#37 = ORGANIZATION ( 'NEURÈENÝ', 'NEURÈENÝ', '' ) ;
#38 = DIRECTION ( 'NONE',  ( 1.000000000000000000, 0.000000000000000000, -0.000000000000000000 ) ) ;
#39 = EDGE_CURVE ( 'NONE', #67, #229, #218, .T. ) ;
#40 = PERSON_AND_ORGANIZATION ( #173, #37 ) ;
#41 = CIRCLE ( 'NONE', #183, 7.000000000000000000 ) ;
#42 = PERSON_AND_ORGANIZATION_ROLE ( 'classification_officer' ) ;
#43 = COORDINATED_UNIVERSAL_TIME_OFFSET ( 1, 0, .AHEAD. ) ;
#44 = AXIS2_PLACEMENT_3D ( 'NONE', #47, #203, #107 ) ;
#45 = APPROVAL_PERSON_ORGANIZATION ( #40, #88, #62 ) ;
#46 = ADVANCED_FACE ( 'NONE', ( #83 ), #166, .T. ) ;
#47 = CARTESIAN_POINT ( 'NONE',  ( 0.000000000000000000, 0.000000000000000000, 165.0000000000000000 ) ) ;
#48 = VERTEX_POINT ( 'NONE', #221 ) ;
#49 = CARTESIAN_POINT ( 'NONE',  ( 0.000000000000000000, 0.000000000000000000, 5.000000000000000000 ) ) ;
#50 = DIRECTION ( 'NONE',  ( -0.000000000000000000, -0.000000000000000000, -1.000000000000000000 ) ) ;
#51 = PRODUCT_DEFINITION_FORMATION_WITH_SPECIFIED_SOURCE ( 'LIBOVOLNÝ', '', #112, .NOT_KNOWN. ) ;
#52 = ORIENTED_EDGE ( 'NONE', *, *, #241, .F. ) ;
#53 = CC_DESIGN_PERSON_AND_ORGANIZATION_ASSIGNMENT ( #159, #232, ( #112 ) ) ;
#54 = LINE ( 'NONE', #154, #99 ) ;
#55 = ORIENTED_EDGE ( 'NONE', *, *, #241, .T. ) ;
#56 = DIRECTION ( 'NONE',  ( 1.000000000000000000, 0.000000000000000000, -0.000000000000000000 ) ) ;
#57 = ORIENTED_EDGE ( 'NONE', *, *, #162, .T. ) ;
#58 =( LENGTH_UNIT ( ) NAMED_UNIT ( * ) SI_UNIT ( .MILLI., .METRE. ) );
#59 = PRODUCT_DEFINITION ( 'NEZNÁMÝ', '', #51, #153 ) ;
#60 = APPROVAL_ROLE ( '' ) ;
#61 = APPROVAL_DATE_TIME ( #158, #197 ) ;
#62 = APPROVAL_ROLE ( '' ) ;
#63 = DIRECTION ( 'NONE',  ( 0.000000000000000000, 0.000000000000000000, 1.000000000000000000 ) ) ;
#64 = EDGE_CURVE ( 'NONE', #84, #9, #85, .T. ) ;
#65 = CARTESIAN_POINT ( 'NONE',  ( 0.000000000000000000, 0.000000000000000000, 165.0000000000000000 ) ) ;
#66 = CC_DESIGN_SECURITY_CLASSIFICATION ( #127, ( #51 ) ) ;
#67 = VERTEX_POINT ( 'NONE', #180 ) ;
#68 = FACE_OUTER_BOUND ( 'NONE', #239, .T. ) ;
#69 = DIRECTION ( 'NONE',  ( 0.000000000000000000, 0.000000000000000000, 1.000000000000000000 ) ) ;
#70 = CARTESIAN_POINT ( 'NONE',  ( 0.000000000000000000, 0.000000000000000000, 0.000000000000000000 ) ) ;
#71 = AXIS2_PLACEMENT_3D ( 'NONE', #70, #171, #249 ) ;
#72 = FACE_OUTER_BOUND ( 'NONE', #96, .T. ) ;
#73 = CARTESIAN_POINT ( 'NONE',  ( 7.000000000000000000, 8.572527594031473190E-16, 5.000000000000000000 ) ) ;
#74 = CC_DESIGN_PERSON_AND_ORGANIZATION_ASSIGNMENT ( #20, #104, ( #51 ) ) ;
#75 = VECTOR ( 'NONE', #165, 1000.000000000000000 ) ;
#76 = APPROVAL_PERSON_ORGANIZATION ( #101, #197, #143 ) ;
#77 = CALENDAR_DATE ( 2022, 7, 7 ) ;
#78 = APPROVAL_STATUS ( 'not_yet_approved' ) ;
#79 = ADVANCED_FACE ( 'NONE', ( #240 ), #222, .T. ) ;
#80 = AXIS2_PLACEMENT_3D ( 'NONE', #226, #184, #5 ) ;
#81 = DIRECTION ( 'NONE',  ( 1.000000000000000000, 0.000000000000000000, 0.000000000000000000 ) ) ;
#82 = PRODUCT_RELATED_PRODUCT_CATEGORY ( 'detail', '', ( #112 ) ) ;
#83 = FACE_OUTER_BOUND ( 'NONE', #205, .T. ) ;
#84 = VERTEX_POINT ( 'NONE', #29 ) ;
#85 = CIRCLE ( 'NONE', #44, 4.000000000000000000 ) ;
#86 = ORIENTED_EDGE ( 'NONE', *, *, #102, .F. ) ;
#87 = FACE_BOUND ( 'NONE', #210, .T. ) ;
#88 = APPROVAL ( #78, 'NEURÈENÝ' ) ;
#89 = ORIENTED_EDGE ( 'NONE', *, *, #176, .F. ) ;
#90 = FACE_OUTER_BOUND ( 'NONE', #27, .T. ) ;
#91 = CYLINDRICAL_SURFACE ( 'NONE', #13, 7.000000000000000000 ) ;
#92 = CARTESIAN_POINT ( 'NONE',  ( 4.000000000000000000, 4.898587196589412829E-16, 165.0000000000000000 ) ) ;
#93 = EDGE_LOOP ( 'NONE', ( #242, #182, #246, #248 ) ) ;
#94 = CIRCLE ( 'NONE', #71, 7.000000000000000000 ) ;
#95 = DIRECTION ( 'NONE',  ( 0.000000000000000000, 0.000000000000000000, 1.000000000000000000 ) ) ;
#96 = EDGE_LOOP ( 'NONE', ( #3, #52, #168, #208 ) ) ;
#97 = DIRECTION ( 'NONE',  ( -1.000000000000000000, 0.000000000000000000, 0.000000000000000000 ) ) ;
#98 = DATE_AND_TIME ( #18, #100 ) ;
#99 = VECTOR ( 'NONE', #11, 1000.000000000000000 ) ;
#100 = LOCAL_TIME ( 19, 33, 28.00000000000000000, #43 ) ;
#101 = PERSON_AND_ORGANIZATION ( #173, #37 ) ;
#102 = EDGE_CURVE ( 'NONE', #9, #84, #105, .T. ) ;
#103 = DATE_TIME_ROLE ( 'classification_date' ) ;
#104 = PERSON_AND_ORGANIZATION_ROLE ( 'design_supplier' ) ;
#105 = CIRCLE ( 'NONE', #151, 4.000000000000000000 ) ;
#106 = ORIENTED_EDGE ( 'NONE', *, *, #176, .T. ) ;
#107 = DIRECTION ( 'NONE',  ( 1.000000000000000000, 0.000000000000000000, 0.000000000000000000 ) ) ;
#108 = CARTESIAN_POINT ( 'NONE',  ( -7.000000000000000000, 0.000000000000000000, 0.000000000000000000 ) ) ;
#109 = CIRCLE ( 'NONE', #119, 4.000000000000000000 ) ;
#110 = DIRECTION ( 'NONE',  ( 0.000000000000000000, 0.000000000000000000, 1.000000000000000000 ) ) ;
#111 = ORIENTED_EDGE ( 'NONE', *, *, #64, .T. ) ;
#112 = PRODUCT ( '0413', '0413', '', ( #161 ) ) ;
#113 = CARTESIAN_POINT ( 'NONE',  ( 0.000000000000000000, 0.000000000000000000, 165.0000000000000000 ) ) ;
#114 = DIRECTION ( 'NONE',  ( 0.000000000000000000, 0.000000000000000000, 1.000000000000000000 ) ) ;
#115 = DIRECTION ( 'NONE',  ( 0.000000000000000000, 0.000000000000000000, 1.000000000000000000 ) ) ;
#116 = ORIENTED_EDGE ( 'NONE', *, *, #162, .F. ) ;
#117 = EDGE_CURVE ( 'NONE', #30, #145, #225, .T. ) ;
#118 = CARTESIAN_POINT ( 'NONE',  ( 0.000000000000000000, 0.000000000000000000, 5.000000000000000000 ) ) ;
#119 = AXIS2_PLACEMENT_3D ( 'NONE', #245, #115, #189 ) ;
#120 = DATE_AND_TIME ( #253, #136 ) ;
#121 = CIRCLE ( 'NONE', #36, 4.000000000000000000 ) ;
#122 = APPROVAL_STATUS ( 'not_yet_approved' ) ;
#123 = PERSON_AND_ORGANIZATION_ROLE ( 'creator' ) ;
#124 = ADVANCED_FACE ( 'NONE', ( #10 ), #91, .T. ) ;
#125 = APPROVAL_STATUS ( 'not_yet_approved' ) ;
#126 = AXIS2_PLACEMENT_3D ( 'NONE', #169, #14, #247 ) ;
#127 = SECURITY_CLASSIFICATION ( '', '', #217 ) ;
#128 = DIRECTION ( 'NONE',  ( 1.000000000000000000, 0.000000000000000000, 0.000000000000000000 ) ) ;
#129 = ORIENTED_EDGE ( 'NONE', *, *, #137, .T. ) ;
#130 = LINE ( 'NONE', #147, #75 ) ;
#131 = PLANE ( 'NONE',  #215 ) ;
#132 = DIRECTION ( 'NONE',  ( -1.000000000000000000, 0.000000000000000000, 0.000000000000000000 ) ) ;
#133 = PLANE ( 'NONE',  #220 ) ;
#134 = CARTESIAN_POINT ( 'NONE',  ( 0.000000000000000000, 0.000000000000000000, 5.000000000000000000 ) ) ;
#135 =( NAMED_UNIT ( * ) PLANE_ANGLE_UNIT ( ) SI_UNIT ( $, .RADIAN. ) );
#136 = LOCAL_TIME ( 19, 33, 28.00000000000000000, #196 ) ;
#137 = EDGE_CURVE ( 'NONE', #84, #12, #54, .T. ) ;
#138 = DATE_AND_TIME ( #77, #202 ) ;
#139 = PERSON_AND_ORGANIZATION ( #173, #37 ) ;
#140 = CC_DESIGN_APPROVAL ( #197, ( #51 ) ) ;
#141 = PERSON_AND_ORGANIZATION ( #173, #37 ) ;
#142 = CC_DESIGN_DATE_AND_TIME_ASSIGNMENT ( #98, #103, ( #127 ) ) ;
#143 = APPROVAL_ROLE ( '' ) ;
#144 = ADVANCED_FACE ( 'NONE', ( #87, #209 ), #133, .T. ) ;
#145 = VERTEX_POINT ( 'NONE', #167 ) ;
#146 = MANIFOLD_SOLID_BREP ( 'Pøidat vysunutím3', #21 ) ;
#147 = CARTESIAN_POINT ( 'NONE',  ( -7.000000000000000000, 0.000000000000000000, 5.000000000000000000 ) ) ;
#148 = ORIENTED_EDGE ( 'NONE', *, *, #117, .F. ) ;
#149 = DIRECTION ( 'NONE',  ( -0.000000000000000000, -0.000000000000000000, -1.000000000000000000 ) ) ;
#150 = ORIENTED_EDGE ( 'NONE', *, *, #64, .F. ) ;
#151 = AXIS2_PLACEMENT_3D ( 'NONE', #113, #244, #186 ) ;
#152 = CARTESIAN_POINT ( 'NONE',  ( -7.000000000000000000, 0.000000000000000000, 5.000000000000000000 ) ) ;
#153 = DESIGN_CONTEXT ( 'detailed design', #251, 'design' ) ;
#154 = CARTESIAN_POINT ( 'NONE',  ( -4.000000000000000000, 0.000000000000000000, 165.0000000000000000 ) ) ;
#155 = EDGE_LOOP ( 'NONE', ( #55, #34 ) ) ;
#156 = DIRECTION ( 'NONE',  ( 1.000000000000000000, 0.000000000000000000, 0.000000000000000000 ) ) ;
#157 = APPROVAL_DATE_TIME ( #138, #4 ) ;
#158 = DATE_AND_TIME ( #252, #170 ) ;
#159 = PERSON_AND_ORGANIZATION ( #173, #37 ) ;
#160 =( GEOMETRIC_REPRESENTATION_CONTEXT ( 3 ) GLOBAL_UNCERTAINTY_ASSIGNED_CONTEXT ( ( #35 ) ) GLOBAL_UNIT_ASSIGNED_CONTEXT ( ( #58, #135, #193 ) ) REPRESENTATION_CONTEXT ( 'NONE', 'WORKASPACE' ) );
#161 = MECHANICAL_CONTEXT ( 'NONE', #238, 'mechanical' ) ;
#162 = EDGE_CURVE ( 'NONE', #9, #48, #31, .T. ) ;
#163 = DIRECTION ( 'NONE',  ( -0.000000000000000000, -0.000000000000000000, -1.000000000000000000 ) ) ;
#164 = ADVANCED_FACE ( 'NONE', ( #68 ), #185, .T. ) ;
#165 = DIRECTION ( 'NONE',  ( -0.000000000000000000, -0.000000000000000000, -1.000000000000000000 ) ) ;
#166 = CYLINDRICAL_SURFACE ( 'NONE', #1, 4.000000000000000000 ) ;
#167 = CARTESIAN_POINT ( 'NONE',  ( 7.000000000000000000, 8.572527594031473190E-16, 0.000000000000000000 ) ) ;
#168 = ORIENTED_EDGE ( 'NONE', *, *, #32, .T. ) ;
#169 = CARTESIAN_POINT ( 'NONE',  ( 0.000000000000000000, 0.000000000000000000, 165.0000000000000000 ) ) ;
#170 = LOCAL_TIME ( 19, 33, 28.00000000000000000, #175 ) ;
#171 = DIRECTION ( 'NONE',  ( 0.000000000000000000, 0.000000000000000000, 1.000000000000000000 ) ) ;
#172 = DIRECTION ( 'NONE',  ( -0.000000000000000000, -0.000000000000000000, -1.000000000000000000 ) ) ;
#173 = PERSON ( 'NEURÈENÝ', 'NEURÈENÝ', 'NEURÈENÝ', ('NEURÈENÝ'), ('NEURÈENÝ'), ('NEURÈENÝ') ) ;
#174 = COORDINATED_UNIVERSAL_TIME_OFFSET ( 1, 0, .AHEAD. ) ;
#175 = COORDINATED_UNIVERSAL_TIME_OFFSET ( 1, 0, .AHEAD. ) ;
#176 = EDGE_CURVE ( 'NONE', #48, #12, #109, .T. ) ;
#177 = APPROVAL_DATE_TIME ( #120, #88 ) ;
#178 = LOCAL_TIME ( 19, 33, 28.00000000000000000, #231 ) ;
#179 = VECTOR ( 'NONE', #172, 1000.000000000000000 ) ;
#180 = CARTESIAN_POINT ( 'NONE',  ( 7.000000000000000000, 8.572527594031473190E-16, 5.000000000000000000 ) ) ;
#181 = PRODUCT_DEFINITION_SHAPE ( 'NONE', 'NONE',  #59 ) ;
#182 = ORIENTED_EDGE ( 'NONE', *, *, #201, .T. ) ;
#183 = AXIS2_PLACEMENT_3D ( 'NONE', #118, #95, #156 ) ;
#184 = DIRECTION ( 'NONE',  ( -0.000000000000000000, -0.000000000000000000, -1.000000000000000000 ) ) ;
#185 = PLANE ( 'NONE',  #126 ) ;
#186 = DIRECTION ( 'NONE',  ( 1.000000000000000000, 0.000000000000000000, 0.000000000000000000 ) ) ;
#187 = ORIENTED_EDGE ( 'NONE', *, *, #15, .F. ) ;
#188 = DIRECTION ( 'NONE',  ( 1.000000000000000000, 0.000000000000000000, 0.000000000000000000 ) ) ;
#189 = DIRECTION ( 'NONE',  ( 1.000000000000000000, 0.000000000000000000, 0.000000000000000000 ) ) ;
#190 = ORIENTED_EDGE ( 'NONE', *, *, #200, .F. ) ;
#191 = DIRECTION ( 'NONE',  ( -0.000000000000000000, -0.000000000000000000, -1.000000000000000000 ) ) ;
#192 = ORIENTED_EDGE ( 'NONE', *, *, #137, .F. ) ;
#193 =( NAMED_UNIT ( * ) SI_UNIT ( $, .STERADIAN. ) SOLID_ANGLE_UNIT ( ) );
#194 = PERSON_AND_ORGANIZATION_ROLE ( 'creator' ) ;
#195 = CARTESIAN_POINT ( 'NONE',  ( 0.000000000000000000, 0.000000000000000000, 0.000000000000000000 ) ) ;
#196 = COORDINATED_UNIVERSAL_TIME_OFFSET ( 1, 0, .AHEAD. ) ;
#197 = APPROVAL ( #122, 'NEURÈENÝ' ) ;
#198 = DATE_AND_TIME ( #216, #178 ) ;
#199 = APPROVAL_PERSON_ORGANIZATION ( #22, #4, #60 ) ;
#200 = EDGE_CURVE ( 'NONE', #145, #30, #94, .T. ) ;
#201 = EDGE_CURVE ( 'NONE', #67, #145, #243, .T. ) ;
#202 = LOCAL_TIME ( 19, 33, 28.00000000000000000, #174 ) ;
#203 = DIRECTION ( 'NONE',  ( 0.000000000000000000, 0.000000000000000000, 1.000000000000000000 ) ) ;
#204 = DIRECTION ( 'NONE',  ( 0.000000000000000000, 0.000000000000000000, 1.000000000000000000 ) ) ;
#205 = EDGE_LOOP ( 'NONE', ( #86, #57, #106, #192 ) ) ;
#206 = ADVANCED_BREP_SHAPE_REPRESENTATION ( '0413', ( #146, #235 ), #160 ) ;
#207 = DIRECTION ( 'NONE',  ( 1.000000000000000000, 0.000000000000000000, 0.000000000000000000 ) ) ;
#208 = ORIENTED_EDGE ( 'NONE', *, *, #117, .T. ) ;
#209 = FACE_OUTER_BOUND ( 'NONE', #155, .T. ) ;
#210 = EDGE_LOOP ( 'NONE', ( #187, #89 ) ) ;
#211 = CYLINDRICAL_SURFACE ( 'NONE', #16, 7.000000000000000000 ) ;
#212 = ORIENTED_EDGE ( 'NONE', *, *, #102, .T. ) ;
#213 = SHAPE_DEFINITION_REPRESENTATION ( #181, #206 ) ;
#214 = PERSON_AND_ORGANIZATION ( #173, #37 ) ;
#215 = AXIS2_PLACEMENT_3D ( 'NONE', #228, #8, #56 ) ;
#216 = CALENDAR_DATE ( 2022, 7, 7 ) ;
#217 = SECURITY_CLASSIFICATION_LEVEL ( 'unclassified' ) ;
#218 = CIRCLE ( 'NONE', #250, 7.000000000000000000 ) ;
#219 = ADVANCED_FACE ( 'NONE', ( #72 ), #211, .T. ) ;
#220 = AXIS2_PLACEMENT_3D ( 'NONE', #134, #110, #38 ) ;
#221 = CARTESIAN_POINT ( 'NONE',  ( 4.000000000000000000, 4.898587196589412829E-16, 5.000000000000000000 ) ) ;
#222 = CYLINDRICAL_SURFACE ( 'NONE', #80, 4.000000000000000000 ) ;
#223 = EDGE_LOOP ( 'NONE', ( #116, #150, #129, #2 ) ) ;
#224 = CARTESIAN_POINT ( 'NONE',  ( 4.000000000000000000, 4.898587196589412829E-16, 165.0000000000000000 ) ) ;
#225 = CIRCLE ( 'NONE', #23, 7.000000000000000000 ) ;
#226 = CARTESIAN_POINT ( 'NONE',  ( 0.000000000000000000, 0.000000000000000000, 165.0000000000000000 ) ) ;
#227 = CARTESIAN_POINT ( 'NONE',  ( 0.000000000000000000, 0.000000000000000000, 5.000000000000000000 ) ) ;
#228 = CARTESIAN_POINT ( 'NONE',  ( 0.000000000000000000, 0.000000000000000000, 0.000000000000000000 ) ) ;
#229 = VERTEX_POINT ( 'NONE', #152 ) ;
#230 = CC_DESIGN_PERSON_AND_ORGANIZATION_ASSIGNMENT ( #139, #194, ( #51 ) ) ;
#231 = COORDINATED_UNIVERSAL_TIME_OFFSET ( 1, 0, .AHEAD. ) ;
#232 = PERSON_AND_ORGANIZATION_ROLE ( 'design_owner' ) ;
#233 = APPLICATION_PROTOCOL_DEFINITION ( 'international standard', 'config_control_design', 1994, #251 ) ;
#234 = ADVANCED_FACE ( 'NONE', ( #90 ), #131, .F. ) ;
#235 = AXIS2_PLACEMENT_3D ( 'NONE', #195, #63, #81 ) ;
#236 = CC_DESIGN_APPROVAL ( #4, ( #127 ) ) ;
#237 = CC_DESIGN_PERSON_AND_ORGANIZATION_ASSIGNMENT ( #141, #123, ( #59 ) ) ;
#238 = APPLICATION_CONTEXT ( 'configuration controlled 3d designs of mechanical parts and assemblies' ) ;
#239 = EDGE_LOOP ( 'NONE', ( #111, #212 ) ) ;
#240 = FACE_OUTER_BOUND ( 'NONE', #223, .T. ) ;
#241 = EDGE_CURVE ( 'NONE', #229, #67, #41, .T. ) ;
#242 = ORIENTED_EDGE ( 'NONE', *, *, #39, .F. ) ;
#243 = LINE ( 'NONE', #73, #255 ) ;
#244 = DIRECTION ( 'NONE',  ( 0.000000000000000000, 0.000000000000000000, 1.000000000000000000 ) ) ;
#245 = CARTESIAN_POINT ( 'NONE',  ( 0.000000000000000000, 0.000000000000000000, 5.000000000000000000 ) ) ;
#246 = ORIENTED_EDGE ( 'NONE', *, *, #200, .T. ) ;
#247 = DIRECTION ( 'NONE',  ( 1.000000000000000000, 0.000000000000000000, -0.000000000000000000 ) ) ;
#248 = ORIENTED_EDGE ( 'NONE', *, *, #32, .F. ) ;
#249 = DIRECTION ( 'NONE',  ( 1.000000000000000000, 0.000000000000000000, 0.000000000000000000 ) ) ;
#250 = AXIS2_PLACEMENT_3D ( 'NONE', #25, #69, #128 ) ;
#251 = APPLICATION_CONTEXT ( 'configuration controlled 3d designs of mechanical parts and assemblies' ) ;
#252 = CALENDAR_DATE ( 2022, 7, 7 ) ;
#253 = CALENDAR_DATE ( 2022, 7, 7 ) ;
#254 = APPLICATION_PROTOCOL_DEFINITION ( 'international standard', 'config_control_design', 1994, #238 ) ;
#255 = VECTOR ( 'NONE', #149, 1000.000000000000000 ) ;
ENDSEC;
END-ISO-10303-21;
