ISO-10303-21;
HEADER;
FILE_DESCRIPTION (( 'STEP AP203' ),
    '1' );
FILE_NAME ('c582.STEP',
    '2023-02-13T13:51:33',
    ( '' ),
    ( '' ),
    'SwSTEP 2.0',
    'SolidWorks 2019',
    '' );
FILE_SCHEMA (( 'CONFIG_CONTROL_DESIGN' ));
ENDSEC;

DATA;
#1 = PRODUCT_DEFINITION_FORMATION_WITH_SPECIFIED_SOURCE ( 'LIBOVOLNÝ', '', #28, .NOT_KNOWN. ) ;
#2 = APPROVAL ( #91, 'NEURÈENÝ' ) ;
#3 = CIRCLE ( 'NONE', #202, 7.000000000000000000 ) ;
#4 = APPROVAL_ROLE ( '' ) ;
#5 =( NAMED_UNIT ( * ) SI_UNIT ( $, .STERADIAN. ) SOLID_ANGLE_UNIT ( ) );
#6 = VERTEX_POINT ( 'NONE', #169 ) ;
#7 = COORDINATED_UNIVERSAL_TIME_OFFSET ( 1, 0, .AHEAD. ) ;
#8 = CIRCLE ( 'NONE', #158, 4.500000000000000000 ) ;
#9 = CALENDAR_DATE ( 2023, 13, 2 ) ;
#10 = CARTESIAN_POINT ( 'NONE',  ( -7.000000000000000000, 0.000000000000000000, 5.000000000000000000 ) ) ;
#11 = ORIENTED_EDGE ( 'NONE', *, *, #244, .T. ) ;
#12 = VECTOR ( 'NONE', #123, 1000.000000000000000 ) ;
#13 = APPROVAL_DATE_TIME ( #196, #65 ) ;
#14 = CARTESIAN_POINT ( 'NONE',  ( 4.500000000000000000, 5.510910596163088569E-16, 200.0000000000000000 ) ) ;
#15 = CALENDAR_DATE ( 2023, 13, 2 ) ;
#16 = EDGE_CURVE ( 'NONE', #93, #50, #207, .T. ) ;
#17 = DIRECTION ( 'NONE',  ( -0.000000000000000000, -0.000000000000000000, -1.000000000000000000 ) ) ;
#18 = UNCERTAINTY_MEASURE_WITH_UNIT (LENGTH_MEASURE( 1.000000000000000082E-05 ), #68, 'distance_accuracy_value', 'NONE');
#19 = DIRECTION ( 'NONE',  ( 1.000000000000000000, 0.000000000000000000, 0.000000000000000000 ) ) ;
#20 = CC_DESIGN_APPROVAL ( #65, ( #1 ) ) ;
#21 = CARTESIAN_POINT ( 'NONE',  ( -4.500000000000000000, 0.000000000000000000, 200.0000000000000000 ) ) ;
#22 = CC_DESIGN_PERSON_AND_ORGANIZATION_ASSIGNMENT ( #29, #214, ( #28 ) ) ;
#23 = DIRECTION ( 'NONE',  ( -0.000000000000000000, -0.000000000000000000, -1.000000000000000000 ) ) ;
#24 = LOCAL_TIME ( 14, 51, 33.00000000000000000, #7 ) ;
#25 =( NAMED_UNIT ( * ) PLANE_ANGLE_UNIT ( ) SI_UNIT ( $, .RADIAN. ) );
#26 = ORIENTED_EDGE ( 'NONE', *, *, #90, .F. ) ;
#27 = EDGE_LOOP ( 'NONE', ( #225, #252, #235, #26 ) ) ;
#28 = PRODUCT ( 'c582', 'c582', '', ( #231 ) ) ;
#29 = PERSON_AND_ORGANIZATION ( #64, #224 ) ;
#30 = ADVANCED_FACE ( 'NONE', ( #246 ), #71, .T. ) ;
#31 = FACE_BOUND ( 'NONE', #80, .T. ) ;
#32 = COORDINATED_UNIVERSAL_TIME_OFFSET ( 1, 0, .AHEAD. ) ;
#33 = APPROVAL_STATUS ( 'not_yet_approved' ) ;
#34 = DIRECTION ( 'NONE',  ( 0.000000000000000000, 0.000000000000000000, 1.000000000000000000 ) ) ;
#35 = ORIENTED_EDGE ( 'NONE', *, *, #135, .F. ) ;
#36 = CALENDAR_DATE ( 2023, 13, 2 ) ;
#37 = EDGE_LOOP ( 'NONE', ( #35, #147 ) ) ;
#38 = ADVANCED_FACE ( 'NONE', ( #245 ), #47, .T. ) ;
#39 = PERSON_AND_ORGANIZATION ( #64, #224 ) ;
#40 = CARTESIAN_POINT ( 'NONE',  ( 0.000000000000000000, 0.000000000000000000, 200.0000000000000000 ) ) ;
#41 = CARTESIAN_POINT ( 'NONE',  ( 0.000000000000000000, 0.000000000000000000, 5.000000000000000000 ) ) ;
#42 = AXIS2_PLACEMENT_3D ( 'NONE', #46, #240, #143 ) ;
#43 = EDGE_CURVE ( 'NONE', #84, #50, #204, .T. ) ;
#44 = DIRECTION ( 'NONE',  ( 0.000000000000000000, 0.000000000000000000, 1.000000000000000000 ) ) ;
#45 = APPLICATION_CONTEXT ( 'configuration controlled 3d designs of mechanical parts and assemblies' ) ;
#46 = CARTESIAN_POINT ( 'NONE',  ( 0.000000000000000000, 0.000000000000000000, 5.000000000000000000 ) ) ;
#47 = CYLINDRICAL_SURFACE ( 'NONE', #243, 4.500000000000000000 ) ;
#48 =( GEOMETRIC_REPRESENTATION_CONTEXT ( 3 ) GLOBAL_UNCERTAINTY_ASSIGNED_CONTEXT ( ( #18 ) ) GLOBAL_UNIT_ASSIGNED_CONTEXT ( ( #68, #25, #5 ) ) REPRESENTATION_CONTEXT ( 'NONE', 'WORKASPACE' ) );
#49 = COORDINATED_UNIVERSAL_TIME_OFFSET ( 1, 0, .AHEAD. ) ;
#50 = VERTEX_POINT ( 'NONE', #101 ) ;
#51 = CARTESIAN_POINT ( 'NONE',  ( 0.000000000000000000, 0.000000000000000000, 0.000000000000000000 ) ) ;
#52 = APPLICATION_CONTEXT ( 'configuration controlled 3d designs of mechanical parts and assemblies' ) ;
#53 = AXIS2_PLACEMENT_3D ( 'NONE', #98, #34, #62 ) ;
#54 = VERTEX_POINT ( 'NONE', #206 ) ;
#55 = CIRCLE ( 'NONE', #88, 7.000000000000000000 ) ;
#56 = ORIENTED_EDGE ( 'NONE', *, *, #16, .F. ) ;
#57 = PERSON_AND_ORGANIZATION ( #64, #224 ) ;
#58 = DATE_AND_TIME ( #9, #83 ) ;
#59 = EDGE_CURVE ( 'NONE', #74, #177, #133, .T. ) ;
#60 = DIRECTION ( 'NONE',  ( 0.000000000000000000, 0.000000000000000000, 1.000000000000000000 ) ) ;
#61 = CARTESIAN_POINT ( 'NONE',  ( 4.500000000000000000, 5.510910596163088569E-16, 200.0000000000000000 ) ) ;
#62 = DIRECTION ( 'NONE',  ( 1.000000000000000000, 0.000000000000000000, -0.000000000000000000 ) ) ;
#63 = EDGE_LOOP ( 'NONE', ( #229, #72 ) ) ;
#64 = PERSON ( 'NEURÈENÝ', 'NEURÈENÝ', 'NEURÈENÝ', ('NEURÈENÝ'), ('NEURÈENÝ'), ('NEURÈENÝ') ) ;
#65 = APPROVAL ( #33, 'NEURÈENÝ' ) ;
#66 = AXIS2_PLACEMENT_3D ( 'NONE', #41, #156, #136 ) ;
#67 = SECURITY_CLASSIFICATION ( '', '', #146 ) ;
#68 =( LENGTH_UNIT ( ) NAMED_UNIT ( * ) SI_UNIT ( .MILLI., .METRE. ) );
#69 = APPROVAL_PERSON_ORGANIZATION ( #219, #65, #4 ) ;
#70 = APPROVAL_ROLE ( '' ) ;
#71 = CYLINDRICAL_SURFACE ( 'NONE', #42, 7.000000000000000000 ) ;
#72 = ORIENTED_EDGE ( 'NONE', *, *, #255, .T. ) ;
#73 = SHAPE_DEFINITION_REPRESENTATION ( #162, #242 ) ;
#74 = VERTEX_POINT ( 'NONE', #161 ) ;
#75 = PERSON_AND_ORGANIZATION ( #64, #224 ) ;
#76 = CC_DESIGN_DATE_AND_TIME_ASSIGNMENT ( #178, #208, ( #238 ) ) ;
#77 = PERSON_AND_ORGANIZATION ( #64, #224 ) ;
#78 = PERSON_AND_ORGANIZATION ( #64, #224 ) ;
#79 = PLANE ( 'NONE',  #142 ) ;
#80 = EDGE_LOOP ( 'NONE', ( #247, #145 ) ) ;
#81 = DIRECTION ( 'NONE',  ( 0.000000000000000000, 0.000000000000000000, 1.000000000000000000 ) ) ;
#82 = FACE_OUTER_BOUND ( 'NONE', #37, .T. ) ;
#83 = LOCAL_TIME ( 14, 51, 33.00000000000000000, #190 ) ;
#84 = VERTEX_POINT ( 'NONE', #221 ) ;
#85 = DIRECTION ( 'NONE',  ( -0.000000000000000000, -0.000000000000000000, -1.000000000000000000 ) ) ;
#86 = DIRECTION ( 'NONE',  ( 0.000000000000000000, 0.000000000000000000, 1.000000000000000000 ) ) ;
#87 = CIRCLE ( 'NONE', #209, 4.500000000000000000 ) ;
#88 = AXIS2_PLACEMENT_3D ( 'NONE', #137, #191, #216 ) ;
#89 = ORIENTED_EDGE ( 'NONE', *, *, #90, .T. ) ;
#90 = EDGE_CURVE ( 'NONE', #177, #54, #239, .T. ) ;
#91 = APPROVAL_STATUS ( 'not_yet_approved' ) ;
#92 = PLANE ( 'NONE',  #212 ) ;
#93 = VERTEX_POINT ( 'NONE', #237 ) ;
#94 = AXIS2_PLACEMENT_3D ( 'NONE', #173, #134, #253 ) ;
#95 = CARTESIAN_POINT ( 'NONE',  ( -7.000000000000000000, 0.000000000000000000, 5.000000000000000000 ) ) ;
#96 = FACE_OUTER_BOUND ( 'NONE', #122, .T. ) ;
#97 = ADVANCED_FACE ( 'NONE', ( #31, #96 ), #92, .T. ) ;
#98 = CARTESIAN_POINT ( 'NONE',  ( 0.000000000000000000, 0.000000000000000000, 200.0000000000000000 ) ) ;
#99 = CLOSED_SHELL ( 'NONE', ( #38, #140, #30, #97, #175, #233, #203 ) ) ;
#100 = DIRECTION ( 'NONE',  ( 0.000000000000000000, 0.000000000000000000, 1.000000000000000000 ) ) ;
#101 = CARTESIAN_POINT ( 'NONE',  ( -4.500000000000000000, 0.000000000000000000, 5.000000000000000000 ) ) ;
#102 = CARTESIAN_POINT ( 'NONE',  ( 0.000000000000000000, 0.000000000000000000, 5.000000000000000000 ) ) ;
#103 = CARTESIAN_POINT ( 'NONE',  ( 0.000000000000000000, 0.000000000000000000, 5.000000000000000000 ) ) ;
#104 = DIRECTION ( 'NONE',  ( 1.000000000000000000, 0.000000000000000000, 0.000000000000000000 ) ) ;
#105 = APPROVAL_PERSON_ORGANIZATION ( #57, #2, #70 ) ;
#106 = AXIS2_PLACEMENT_3D ( 'NONE', #148, #86, #228 ) ;
#107 = EDGE_LOOP ( 'NONE', ( #195, #188, #89, #110 ) ) ;
#108 = DIRECTION ( 'NONE',  ( 0.000000000000000000, 0.000000000000000000, 1.000000000000000000 ) ) ;
#109 = EDGE_CURVE ( 'NONE', #93, #138, #121, .T. ) ;
#110 = ORIENTED_EDGE ( 'NONE', *, *, #135, .T. ) ;
#111 = DATE_TIME_ROLE ( 'classification_date' ) ;
#112 = CC_DESIGN_SECURITY_CLASSIFICATION ( #67, ( #1 ) ) ;
#113 = PERSON_AND_ORGANIZATION_ROLE ( 'creator' ) ;
#114 = FACE_OUTER_BOUND ( 'NONE', #63, .T. ) ;
#115 = COORDINATED_UNIVERSAL_TIME_OFFSET ( 1, 0, .AHEAD. ) ;
#116 = EDGE_CURVE ( 'NONE', #6, #54, #55, .T. ) ;
#117 = CARTESIAN_POINT ( 'NONE',  ( 0.000000000000000000, 0.000000000000000000, 200.0000000000000000 ) ) ;
#118 = ORIENTED_EDGE ( 'NONE', *, *, #181, .T. ) ;
#119 = LOCAL_TIME ( 14, 51, 33.00000000000000000, #32 ) ;
#120 = CYLINDRICAL_SURFACE ( 'NONE', #66, 7.000000000000000000 ) ;
#121 = CIRCLE ( 'NONE', #205, 4.500000000000000000 ) ;
#122 = EDGE_LOOP ( 'NONE', ( #11, #200 ) ) ;
#123 = DIRECTION ( 'NONE',  ( -0.000000000000000000, -0.000000000000000000, -1.000000000000000000 ) ) ;
#124 = CARTESIAN_POINT ( 'NONE',  ( 0.000000000000000000, 0.000000000000000000, 200.0000000000000000 ) ) ;
#125 = CIRCLE ( 'NONE', #94, 7.000000000000000000 ) ;
#126 = CC_DESIGN_PERSON_AND_ORGANIZATION_ASSIGNMENT ( #77, #218, ( #67 ) ) ;
#127 = AXIS2_PLACEMENT_3D ( 'NONE', #117, #85, #129 ) ;
#128 = CARTESIAN_POINT ( 'NONE',  ( 0.000000000000000000, 0.000000000000000000, 200.0000000000000000 ) ) ;
#129 = DIRECTION ( 'NONE',  ( -1.000000000000000000, 0.000000000000000000, 0.000000000000000000 ) ) ;
#130 = CC_DESIGN_PERSON_AND_ORGANIZATION_ASSIGNMENT ( #78, #154, ( #1 ) ) ;
#131 = APPROVAL_DATE_TIME ( #187, #2 ) ;
#132 = LOCAL_TIME ( 14, 51, 33.00000000000000000, #49 ) ;
#133 = CIRCLE ( 'NONE', #226, 7.000000000000000000 ) ;
#134 = DIRECTION ( 'NONE',  ( 0.000000000000000000, 0.000000000000000000, 1.000000000000000000 ) ) ;
#135 = EDGE_CURVE ( 'NONE', #54, #6, #125, .T. ) ;
#136 = DIRECTION ( 'NONE',  ( -1.000000000000000000, 0.000000000000000000, 0.000000000000000000 ) ) ;
#137 = CARTESIAN_POINT ( 'NONE',  ( 0.000000000000000000, 0.000000000000000000, 0.000000000000000000 ) ) ;
#138 = VERTEX_POINT ( 'NONE', #14 ) ;
#139 = DIRECTION ( 'NONE',  ( 1.000000000000000000, 0.000000000000000000, 0.000000000000000000 ) ) ;
#140 = ADVANCED_FACE ( 'NONE', ( #248 ), #120, .T. ) ;
#141 = LINE ( 'NONE', #61, #12 ) ;
#142 = AXIS2_PLACEMENT_3D ( 'NONE', #199, #81, #160 ) ;
#143 = DIRECTION ( 'NONE',  ( -1.000000000000000000, 0.000000000000000000, 0.000000000000000000 ) ) ;
#144 = MANIFOLD_SOLID_BREP ( 'Pøidat vysunutím3', #99 ) ;
#145 = ORIENTED_EDGE ( 'NONE', *, *, #43, .F. ) ;
#146 = SECURITY_CLASSIFICATION_LEVEL ( 'unclassified' ) ;
#147 = ORIENTED_EDGE ( 'NONE', *, *, #116, .F. ) ;
#148 = CARTESIAN_POINT ( 'NONE',  ( 0.000000000000000000, 0.000000000000000000, 5.000000000000000000 ) ) ;
#149 = EDGE_LOOP ( 'NONE', ( #157, #170, #217, #118 ) ) ;
#150 = PRODUCT_RELATED_PRODUCT_CATEGORY ( 'detail', '', ( #28 ) ) ;
#151 = DIRECTION ( 'NONE',  ( -0.000000000000000000, -0.000000000000000000, -1.000000000000000000 ) ) ;
#152 = ORIENTED_EDGE ( 'NONE', *, *, #43, .T. ) ;
#153 = DIRECTION ( 'NONE',  ( 0.000000000000000000, 0.000000000000000000, 1.000000000000000000 ) ) ;
#154 = PERSON_AND_ORGANIZATION_ROLE ( 'creator' ) ;
#155 = CC_DESIGN_PERSON_AND_ORGANIZATION_ASSIGNMENT ( #210, #113, ( #238 ) ) ;
#156 = DIRECTION ( 'NONE',  ( -0.000000000000000000, -0.000000000000000000, -1.000000000000000000 ) ) ;
#157 = ORIENTED_EDGE ( 'NONE', *, *, #227, .F. ) ;
#158 = AXIS2_PLACEMENT_3D ( 'NONE', #176, #194, #230 ) ;
#159 = PLANE ( 'NONE',  #53 ) ;
#160 = DIRECTION ( 'NONE',  ( 1.000000000000000000, 0.000000000000000000, -0.000000000000000000 ) ) ;
#161 = CARTESIAN_POINT ( 'NONE',  ( 7.000000000000000000, 8.572527594031473190E-16, 5.000000000000000000 ) ) ;
#162 = PRODUCT_DEFINITION_SHAPE ( 'NONE', 'NONE',  #238 ) ;
#163 = APPROVAL_PERSON_ORGANIZATION ( #75, #168, #215 ) ;
#164 = EDGE_CURVE ( 'NONE', #74, #6, #201, .T. ) ;
#165 = DIRECTION ( 'NONE',  ( -1.000000000000000000, 0.000000000000000000, 0.000000000000000000 ) ) ;
#166 = EDGE_LOOP ( 'NONE', ( #192, #236, #152, #56 ) ) ;
#167 = CALENDAR_DATE ( 2023, 13, 2 ) ;
#168 = APPROVAL ( #232, 'NEURÈENÝ' ) ;
#169 = CARTESIAN_POINT ( 'NONE',  ( 7.000000000000000000, 8.572527594031473190E-16, 0.000000000000000000 ) ) ;
#170 = ORIENTED_EDGE ( 'NONE', *, *, #109, .F. ) ;
#171 = APPLICATION_PROTOCOL_DEFINITION ( 'international standard', 'config_control_design', 1994, #52 ) ;
#172 = APPROVAL_DATE_TIME ( #58, #168 ) ;
#173 = CARTESIAN_POINT ( 'NONE',  ( 0.000000000000000000, 0.000000000000000000, 0.000000000000000000 ) ) ;
#174 = PERSON_AND_ORGANIZATION_ROLE ( 'design_supplier' ) ;
#175 = ADVANCED_FACE ( 'NONE', ( #82 ), #79, .F. ) ;
#176 = CARTESIAN_POINT ( 'NONE',  ( 0.000000000000000000, 0.000000000000000000, 5.000000000000000000 ) ) ;
#177 = VERTEX_POINT ( 'NONE', #95 ) ;
#178 = DATE_AND_TIME ( #189, #119 ) ;
#179 = FACE_OUTER_BOUND ( 'NONE', #149, .T. ) ;
#180 = VECTOR ( 'NONE', #241, 1000.000000000000000 ) ;
#181 = EDGE_CURVE ( 'NONE', #50, #84, #8, .T. ) ;
#182 = DIRECTION ( 'NONE',  ( 0.000000000000000000, 0.000000000000000000, 1.000000000000000000 ) ) ;
#183 = DIRECTION ( 'NONE',  ( 1.000000000000000000, 0.000000000000000000, 0.000000000000000000 ) ) ;
#184 = DESIGN_CONTEXT ( 'detailed design', #52, 'design' ) ;
#185 = AXIS2_PLACEMENT_3D ( 'NONE', #51, #108, #249 ) ;
#186 = VECTOR ( 'NONE', #151, 1000.000000000000000 ) ;
#187 = DATE_AND_TIME ( #167, #24 ) ;
#188 = ORIENTED_EDGE ( 'NONE', *, *, #244, .F. ) ;
#189 = CALENDAR_DATE ( 2023, 13, 2 ) ;
#190 = COORDINATED_UNIVERSAL_TIME_OFFSET ( 1, 0, .AHEAD. ) ;
#191 = DIRECTION ( 'NONE',  ( 0.000000000000000000, 0.000000000000000000, 1.000000000000000000 ) ) ;
#192 = ORIENTED_EDGE ( 'NONE', *, *, #255, .F. ) ;
#193 = DATE_AND_TIME ( #15, #132 ) ;
#194 = DIRECTION ( 'NONE',  ( 0.000000000000000000, 0.000000000000000000, 1.000000000000000000 ) ) ;
#195 = ORIENTED_EDGE ( 'NONE', *, *, #164, .F. ) ;
#196 = DATE_AND_TIME ( #36, #220 ) ;
#197 = CC_DESIGN_APPROVAL ( #2, ( #238 ) ) ;
#198 = VECTOR ( 'NONE', #17, 1000.000000000000000 ) ;
#199 = CARTESIAN_POINT ( 'NONE',  ( 0.000000000000000000, 0.000000000000000000, 0.000000000000000000 ) ) ;
#200 = ORIENTED_EDGE ( 'NONE', *, *, #59, .T. ) ;
#201 = LINE ( 'NONE', #213, #186 ) ;
#202 = AXIS2_PLACEMENT_3D ( 'NONE', #103, #44, #19 ) ;
#203 = ADVANCED_FACE ( 'NONE', ( #114 ), #159, .T. ) ;
#204 = CIRCLE ( 'NONE', #106, 4.500000000000000000 ) ;
#205 = AXIS2_PLACEMENT_3D ( 'NONE', #40, #60, #139 ) ;
#206 = CARTESIAN_POINT ( 'NONE',  ( -7.000000000000000000, 0.000000000000000000, 0.000000000000000000 ) ) ;
#207 = LINE ( 'NONE', #21, #180 ) ;
#208 = DATE_TIME_ROLE ( 'creation_date' ) ;
#209 = AXIS2_PLACEMENT_3D ( 'NONE', #124, #100, #183 ) ;
#210 = PERSON_AND_ORGANIZATION ( #64, #224 ) ;
#211 = APPLICATION_PROTOCOL_DEFINITION ( 'international standard', 'config_control_design', 1994, #45 ) ;
#212 = AXIS2_PLACEMENT_3D ( 'NONE', #222, #153, #234 ) ;
#213 = CARTESIAN_POINT ( 'NONE',  ( 7.000000000000000000, 8.572527594031473190E-16, 5.000000000000000000 ) ) ;
#214 = PERSON_AND_ORGANIZATION_ROLE ( 'design_owner' ) ;
#215 = APPROVAL_ROLE ( '' ) ;
#216 = DIRECTION ( 'NONE',  ( 1.000000000000000000, 0.000000000000000000, 0.000000000000000000 ) ) ;
#217 = ORIENTED_EDGE ( 'NONE', *, *, #16, .T. ) ;
#218 = PERSON_AND_ORGANIZATION_ROLE ( 'classification_officer' ) ;
#219 = PERSON_AND_ORGANIZATION ( #64, #224 ) ;
#220 = LOCAL_TIME ( 14, 51, 33.00000000000000000, #115 ) ;
#221 = CARTESIAN_POINT ( 'NONE',  ( 4.500000000000000000, 5.510910596163088569E-16, 5.000000000000000000 ) ) ;
#222 = CARTESIAN_POINT ( 'NONE',  ( 0.000000000000000000, 0.000000000000000000, 5.000000000000000000 ) ) ;
#223 = CC_DESIGN_DATE_AND_TIME_ASSIGNMENT ( #193, #111, ( #67 ) ) ;
#224 = ORGANIZATION ( 'NEURÈENÝ', 'NEURÈENÝ', '' ) ;
#225 = ORIENTED_EDGE ( 'NONE', *, *, #59, .F. ) ;
#226 = AXIS2_PLACEMENT_3D ( 'NONE', #102, #182, #104 ) ;
#227 = EDGE_CURVE ( 'NONE', #138, #84, #141, .T. ) ;
#228 = DIRECTION ( 'NONE',  ( 1.000000000000000000, 0.000000000000000000, 0.000000000000000000 ) ) ;
#229 = ORIENTED_EDGE ( 'NONE', *, *, #109, .T. ) ;
#230 = DIRECTION ( 'NONE',  ( 1.000000000000000000, 0.000000000000000000, 0.000000000000000000 ) ) ;
#231 = MECHANICAL_CONTEXT ( 'NONE', #45, 'mechanical' ) ;
#232 = APPROVAL_STATUS ( 'not_yet_approved' ) ;
#233 = ADVANCED_FACE ( 'NONE', ( #179 ), #254, .T. ) ;
#234 = DIRECTION ( 'NONE',  ( 1.000000000000000000, 0.000000000000000000, -0.000000000000000000 ) ) ;
#235 = ORIENTED_EDGE ( 'NONE', *, *, #116, .T. ) ;
#236 = ORIENTED_EDGE ( 'NONE', *, *, #227, .T. ) ;
#237 = CARTESIAN_POINT ( 'NONE',  ( -4.500000000000000000, 0.000000000000000000, 200.0000000000000000 ) ) ;
#238 = PRODUCT_DEFINITION ( 'NEZNÁMÝ', '', #1, #184 ) ;
#239 = LINE ( 'NONE', #10, #198 ) ;
#240 = DIRECTION ( 'NONE',  ( -0.000000000000000000, -0.000000000000000000, -1.000000000000000000 ) ) ;
#241 = DIRECTION ( 'NONE',  ( -0.000000000000000000, -0.000000000000000000, -1.000000000000000000 ) ) ;
#242 = ADVANCED_BREP_SHAPE_REPRESENTATION ( 'c582', ( #144, #185 ), #48 ) ;
#243 = AXIS2_PLACEMENT_3D ( 'NONE', #128, #23, #165 ) ;
#244 = EDGE_CURVE ( 'NONE', #177, #74, #3, .T. ) ;
#245 = FACE_OUTER_BOUND ( 'NONE', #166, .T. ) ;
#246 = FACE_OUTER_BOUND ( 'NONE', #107, .T. ) ;
#247 = ORIENTED_EDGE ( 'NONE', *, *, #181, .F. ) ;
#248 = FACE_OUTER_BOUND ( 'NONE', #27, .T. ) ;
#249 = DIRECTION ( 'NONE',  ( 1.000000000000000000, 0.000000000000000000, 0.000000000000000000 ) ) ;
#250 = CC_DESIGN_PERSON_AND_ORGANIZATION_ASSIGNMENT ( #39, #174, ( #1 ) ) ;
#251 = CC_DESIGN_APPROVAL ( #168, ( #67 ) ) ;
#252 = ORIENTED_EDGE ( 'NONE', *, *, #164, .T. ) ;
#253 = DIRECTION ( 'NONE',  ( 1.000000000000000000, 0.000000000000000000, 0.000000000000000000 ) ) ;
#254 = CYLINDRICAL_SURFACE ( 'NONE', #127, 4.500000000000000000 ) ;
#255 = EDGE_CURVE ( 'NONE', #138, #93, #87, .T. ) ;
ENDSEC;
END-ISO-10303-21;
