ISO-10303-21;
HEADER;
FILE_DESCRIPTION (( 'STEP AP203' ),
    '1' );
FILE_NAME ('7ff6.STEP',
    '2022-07-07T17:54:56',
    ( '' ),
    ( '' ),
    'SwSTEP 2.0',
    'SolidWorks 2019',
    '' );
FILE_SCHEMA (( 'CONFIG_CONTROL_DESIGN' ));
ENDSEC;

DATA;
#1 = APPROVAL_PERSON_ORGANIZATION ( #92, #72, #160 ) ;
#2 = EDGE_CURVE ( 'NONE', #116, #46, #128, .T. ) ;
#3 = CC_DESIGN_PERSON_AND_ORGANIZATION_ASSIGNMENT ( #144, #25, ( #30 ) ) ;
#4 = DIRECTION ( 'NONE',  ( 1.000000000000000000, 0.000000000000000000, 0.000000000000000000 ) ) ;
#5 = LINE ( 'NONE', #7, #66 ) ;
#6 = DIRECTION ( 'NONE',  ( -0.000000000000000000, -0.000000000000000000, -1.000000000000000000 ) ) ;
#7 = CARTESIAN_POINT ( 'NONE',  ( -3.000000000000000444, 0.000000000000000000, 3.000000000000000000 ) ) ;
#8 = CARTESIAN_POINT ( 'NONE',  ( -1.600000000000000089, 0.000000000000000000, 253.0000000000000000 ) ) ;
#9 = CARTESIAN_POINT ( 'NONE',  ( 1.600000000000000089, 1.959434878635765230E-16, 253.0000000000000000 ) ) ;
#10 = DIRECTION ( 'NONE',  ( 1.000000000000000000, 0.000000000000000000, -0.000000000000000000 ) ) ;
#11 = ORIENTED_EDGE ( 'NONE', *, *, #153, .T. ) ;
#12 = AXIS2_PLACEMENT_3D ( 'NONE', #39, #62, #10 ) ;
#13 = EDGE_LOOP ( 'NONE', ( #165, #14 ) ) ;
#14 = ORIENTED_EDGE ( 'NONE', *, *, #133, .T. ) ;
#15 = LOCAL_TIME ( 19, 54, 56.00000000000000000, #88 ) ;
#16 = PERSON_AND_ORGANIZATION_ROLE ( 'design_supplier' ) ;
#17 = PERSON ( 'NEURÈENÝ', 'NEURÈENÝ', 'NEURÈENÝ', ('NEURÈENÝ'), ('NEURÈENÝ'), ('NEURÈENÝ') ) ;
#18 = EDGE_CURVE ( 'NONE', #64, #149, #49, .T. ) ;
#19 = PRODUCT ( '7ff6', '7ff6', '', ( #119 ) ) ;
#20 = AXIS2_PLACEMENT_3D ( 'NONE', #42, #32, #215 ) ;
#21 = AXIS2_PLACEMENT_3D ( 'NONE', #226, #248, #138 ) ;
#22 = PRODUCT_DEFINITION_SHAPE ( 'NONE', 'NONE',  #30 ) ;
#23 = AXIS2_PLACEMENT_3D ( 'NONE', #135, #227, #167 ) ;
#24 = DIRECTION ( 'NONE',  ( 0.000000000000000000, 0.000000000000000000, 1.000000000000000000 ) ) ;
#25 = PERSON_AND_ORGANIZATION_ROLE ( 'creator' ) ;
#26 = CC_DESIGN_PERSON_AND_ORGANIZATION_ASSIGNMENT ( #151, #129, ( #53 ) ) ;
#27 = CARTESIAN_POINT ( 'NONE',  ( 0.000000000000000000, 0.000000000000000000, 253.0000000000000000 ) ) ;
#28 = CALENDAR_DATE ( 2022, 7, 7 ) ;
#29 = DIRECTION ( 'NONE',  ( -1.000000000000000000, 0.000000000000000000, 0.000000000000000000 ) ) ;
#30 = PRODUCT_DEFINITION ( 'NEZNÁMÝ', '', #172, #54 ) ;
#31 = CC_DESIGN_APPROVAL ( #72, ( #172 ) ) ;
#32 = DIRECTION ( 'NONE',  ( 0.000000000000000000, 0.000000000000000000, 1.000000000000000000 ) ) ;
#33 = CARTESIAN_POINT ( 'NONE',  ( 3.000000000000000444, 3.673940397442060361E-16, 3.000000000000000000 ) ) ;
#34 = FACE_OUTER_BOUND ( 'NONE', #142, .T. ) ;
#35 = ORIENTED_EDGE ( 'NONE', *, *, #108, .T. ) ;
#36 = DIRECTION ( 'NONE',  ( 0.000000000000000000, 0.000000000000000000, 1.000000000000000000 ) ) ;
#37 = AXIS2_PLACEMENT_3D ( 'NONE', #143, #93, #203 ) ;
#38 = DIRECTION ( 'NONE',  ( 1.000000000000000000, 0.000000000000000000, 0.000000000000000000 ) ) ;
#39 = CARTESIAN_POINT ( 'NONE',  ( 0.000000000000000000, 0.000000000000000000, 253.0000000000000000 ) ) ;
#40 = APPROVAL_DATE_TIME ( #56, #80 ) ;
#41 = CARTESIAN_POINT ( 'NONE',  ( 0.000000000000000000, 0.000000000000000000, 253.0000000000000000 ) ) ;
#42 = CARTESIAN_POINT ( 'NONE',  ( 0.000000000000000000, 0.000000000000000000, 253.0000000000000000 ) ) ;
#43 = FACE_OUTER_BOUND ( 'NONE', #229, .T. ) ;
#44 = VERTEX_POINT ( 'NONE', #187 ) ;
#45 = DIRECTION ( 'NONE',  ( -1.000000000000000000, 0.000000000000000000, 0.000000000000000000 ) ) ;
#46 = VERTEX_POINT ( 'NONE', #9 ) ;
#47 = ORIENTED_EDGE ( 'NONE', *, *, #221, .F. ) ;
#48 = VERTEX_POINT ( 'NONE', #212 ) ;
#49 = CIRCLE ( 'NONE', #201, 3.000000000000000444 ) ;
#50 = CC_DESIGN_PERSON_AND_ORGANIZATION_ASSIGNMENT ( #173, #106, ( #172 ) ) ;
#51 = COORDINATED_UNIVERSAL_TIME_OFFSET ( 1, 0, .AHEAD. ) ;
#52 = ADVANCED_FACE ( 'NONE', ( #34 ), #101, .T. ) ;
#53 = SECURITY_CLASSIFICATION ( '', '', #127 ) ;
#54 = DESIGN_CONTEXT ( 'detailed design', #228, 'design' ) ;
#55 = APPLICATION_CONTEXT ( 'configuration controlled 3d designs of mechanical parts and assemblies' ) ;
#56 = DATE_AND_TIME ( #110, #199 ) ;
#57 = LINE ( 'NONE', #33, #224 ) ;
#58 = VECTOR ( 'NONE', #204, 1000.000000000000000 ) ;
#59 = DIRECTION ( 'NONE',  ( 0.000000000000000000, 0.000000000000000000, 1.000000000000000000 ) ) ;
#60 = FACE_BOUND ( 'NONE', #225, .T. ) ;
#61 = ORIENTED_EDGE ( 'NONE', *, *, #175, .F. ) ;
#62 = DIRECTION ( 'NONE',  ( 0.000000000000000000, 0.000000000000000000, 1.000000000000000000 ) ) ;
#63 = APPROVAL_STATUS ( 'not_yet_approved' ) ;
#64 = VERTEX_POINT ( 'NONE', #148 ) ;
#65 = CARTESIAN_POINT ( 'NONE',  ( -1.600000000000000089, 0.000000000000000000, 253.0000000000000000 ) ) ;
#66 = VECTOR ( 'NONE', #164, 1000.000000000000000 ) ;
#67 = DIRECTION ( 'NONE',  ( -1.000000000000000000, 0.000000000000000000, 0.000000000000000000 ) ) ;
#68 = ORIENTED_EDGE ( 'NONE', *, *, #175, .T. ) ;
#69 = EDGE_CURVE ( 'NONE', #46, #116, #155, .T. ) ;
#70 = ORIENTED_EDGE ( 'NONE', *, *, #190, .T. ) ;
#71 = EDGE_CURVE ( 'NONE', #44, #48, #157, .T. ) ;
#72 = APPROVAL ( #162, 'NEURÈENÝ' ) ;
#73 = CC_DESIGN_SECURITY_CLASSIFICATION ( #53, ( #172 ) ) ;
#74 = FACE_OUTER_BOUND ( 'NONE', #13, .T. ) ;
#75 = CARTESIAN_POINT ( 'NONE',  ( 0.000000000000000000, 0.000000000000000000, 0.000000000000000000 ) ) ;
#76 = FACE_OUTER_BOUND ( 'NONE', #81, .T. ) ;
#77 = DATE_TIME_ROLE ( 'creation_date' ) ;
#78 = DIRECTION ( 'NONE',  ( 0.000000000000000000, 0.000000000000000000, 1.000000000000000000 ) ) ;
#79 = CARTESIAN_POINT ( 'NONE',  ( 1.600000000000000089, 1.959434878635765230E-16, 3.000000000000000000 ) ) ;
#80 = APPROVAL ( #63, 'NEURÈENÝ' ) ;
#81 = EDGE_LOOP ( 'NONE', ( #85, #102 ) ) ;
#82 = LINE ( 'NONE', #65, #178 ) ;
#83 = DIRECTION ( 'NONE',  ( -0.000000000000000000, -0.000000000000000000, -1.000000000000000000 ) ) ;
#84 = ORIENTED_EDGE ( 'NONE', *, *, #221, .T. ) ;
#85 = ORIENTED_EDGE ( 'NONE', *, *, #2, .T. ) ;
#86 = EDGE_CURVE ( 'NONE', #116, #209, #82, .T. ) ;
#87 = PERSON_AND_ORGANIZATION ( #17, #216 ) ;
#88 = COORDINATED_UNIVERSAL_TIME_OFFSET ( 1, 0, .AHEAD. ) ;
#89 = DATE_TIME_ROLE ( 'classification_date' ) ;
#90 = APPROVAL_PERSON_ORGANIZATION ( #112, #80, #205 ) ;
#91 = DIRECTION ( 'NONE',  ( -1.000000000000000000, 0.000000000000000000, 0.000000000000000000 ) ) ;
#92 = PERSON_AND_ORGANIZATION ( #17, #216 ) ;
#93 = DIRECTION ( 'NONE',  ( 0.000000000000000000, 0.000000000000000000, 1.000000000000000000 ) ) ;
#94 = DATE_AND_TIME ( #28, #132 ) ;
#95 = CARTESIAN_POINT ( 'NONE',  ( -1.600000000000000089, 0.000000000000000000, 3.000000000000000000 ) ) ;
#96 = EDGE_CURVE ( 'NONE', #209, #214, #124, .T. ) ;
#97 = CC_DESIGN_PERSON_AND_ORGANIZATION_ASSIGNMENT ( #239, #189, ( #19 ) ) ;
#98 = CARTESIAN_POINT ( 'NONE',  ( 0.000000000000000000, 0.000000000000000000, 3.000000000000000000 ) ) ;
#99 = PLANE ( 'NONE',  #21 ) ;
#100 = CALENDAR_DATE ( 2022, 7, 7 ) ;
#101 = CYLINDRICAL_SURFACE ( 'NONE', #254, 3.000000000000000444 ) ;
#102 = ORIENTED_EDGE ( 'NONE', *, *, #69, .T. ) ;
#103 = DIRECTION ( 'NONE',  ( 1.000000000000000000, 0.000000000000000000, 0.000000000000000000 ) ) ;
#104 = DATE_AND_TIME ( #196, #15 ) ;
#105 = PERSON_AND_ORGANIZATION ( #17, #216 ) ;
#106 = PERSON_AND_ORGANIZATION_ROLE ( 'creator' ) ;
#107 = ADVANCED_FACE ( 'NONE', ( #114 ), #121, .T. ) ;
#108 = EDGE_CURVE ( 'NONE', #149, #44, #57, .T. ) ;
#109 = LINE ( 'NONE', #111, #58 ) ;
#110 = CALENDAR_DATE ( 2022, 7, 7 ) ;
#111 = CARTESIAN_POINT ( 'NONE',  ( 1.600000000000000089, 1.959434878635765230E-16, 253.0000000000000000 ) ) ;
#112 = PERSON_AND_ORGANIZATION ( #17, #216 ) ;
#113 = CC_DESIGN_DATE_AND_TIME_ASSIGNMENT ( #233, #89, ( #53 ) ) ;
#114 = FACE_OUTER_BOUND ( 'NONE', #145, .T. ) ;
#115 =( NAMED_UNIT ( * ) PLANE_ANGLE_UNIT ( ) SI_UNIT ( $, .RADIAN. ) );
#116 = VERTEX_POINT ( 'NONE', #8 ) ;
#117 = CYLINDRICAL_SURFACE ( 'NONE', #177, 3.000000000000000444 ) ;
#118 = APPROVAL_PERSON_ORGANIZATION ( #105, #174, #176 ) ;
#119 = MECHANICAL_CONTEXT ( 'NONE', #55, 'mechanical' ) ;
#120 = ORIENTED_EDGE ( 'NONE', *, *, #18, .F. ) ;
#121 = CYLINDRICAL_SURFACE ( 'NONE', #206, 1.600000000000000089 ) ;
#122 = PRODUCT_RELATED_PRODUCT_CATEGORY ( 'detail', '', ( #19 ) ) ;
#123 = ORIENTED_EDGE ( 'NONE', *, *, #86, .T. ) ;
#124 = CIRCLE ( 'NONE', #198, 1.600000000000000089 ) ;
#125 = CC_DESIGN_DATE_AND_TIME_ASSIGNMENT ( #223, #77, ( #30 ) ) ;
#126 = ORIENTED_EDGE ( 'NONE', *, *, #153, .F. ) ;
#127 = SECURITY_CLASSIFICATION_LEVEL ( 'unclassified' ) ;
#128 = CIRCLE ( 'NONE', #20, 1.600000000000000089 ) ;
#129 = PERSON_AND_ORGANIZATION_ROLE ( 'classification_officer' ) ;
#130 = AXIS2_PLACEMENT_3D ( 'NONE', #210, #218, #38 ) ;
#131 = APPROVAL_STATUS ( 'not_yet_approved' ) ;
#132 = LOCAL_TIME ( 19, 54, 56.00000000000000000, #181 ) ;
#133 = EDGE_CURVE ( 'NONE', #149, #64, #141, .T. ) ;
#134 = ADVANCED_FACE ( 'NONE', ( #60, #74 ), #99, .T. ) ;
#135 = CARTESIAN_POINT ( 'NONE',  ( 0.000000000000000000, 0.000000000000000000, 0.000000000000000000 ) ) ;
#136 = DIRECTION ( 'NONE',  ( 1.000000000000000000, 0.000000000000000000, 0.000000000000000000 ) ) ;
#137 = COORDINATED_UNIVERSAL_TIME_OFFSET ( 1, 0, .AHEAD. ) ;
#138 = DIRECTION ( 'NONE',  ( 1.000000000000000000, 0.000000000000000000, -0.000000000000000000 ) ) ;
#139 = PLANE ( 'NONE',  #23 ) ;
#140 = CLOSED_SHELL ( 'NONE', ( #107, #52, #159, #134, #244, #200, #154 ) ) ;
#141 = CIRCLE ( 'NONE', #246, 3.000000000000000444 ) ;
#142 = EDGE_LOOP ( 'NONE', ( #192, #35, #169, #47 ) ) ;
#143 = CARTESIAN_POINT ( 'NONE',  ( 0.000000000000000000, 0.000000000000000000, 0.000000000000000000 ) ) ;
#144 = PERSON_AND_ORGANIZATION ( #17, #216 ) ;
#145 = EDGE_LOOP ( 'NONE', ( #247, #70, #68, #150 ) ) ;
#146 = DIRECTION ( 'NONE',  ( -0.000000000000000000, -0.000000000000000000, -1.000000000000000000 ) ) ;
#147 = APPLICATION_PROTOCOL_DEFINITION ( 'international standard', 'config_control_design', 1994, #55 ) ;
#148 = CARTESIAN_POINT ( 'NONE',  ( -3.000000000000000444, 0.000000000000000000, 3.000000000000000000 ) ) ;
#149 = VERTEX_POINT ( 'NONE', #230 ) ;
#150 = ORIENTED_EDGE ( 'NONE', *, *, #86, .F. ) ;
#151 = PERSON_AND_ORGANIZATION ( #17, #216 ) ;
#152 = LOCAL_TIME ( 19, 54, 56.00000000000000000, #211 ) ;
#153 = EDGE_CURVE ( 'NONE', #48, #44, #250, .T. ) ;
#154 = ADVANCED_FACE ( 'NONE', ( #76 ), #158, .T. ) ;
#155 = CIRCLE ( 'NONE', #217, 1.600000000000000089 ) ;
#156 = AXIS2_PLACEMENT_3D ( 'NONE', #41, #207, #29 ) ;
#157 = CIRCLE ( 'NONE', #37, 3.000000000000000444 ) ;
#158 = PLANE ( 'NONE',  #12 ) ;
#159 = ADVANCED_FACE ( 'NONE', ( #43 ), #117, .T. ) ;
#160 = APPROVAL_ROLE ( '' ) ;
#161 = FACE_OUTER_BOUND ( 'NONE', #231, .T. ) ;
#162 = APPROVAL_STATUS ( 'not_yet_approved' ) ;
#163 = CARTESIAN_POINT ( 'NONE',  ( 0.000000000000000000, 0.000000000000000000, 3.000000000000000000 ) ) ;
#164 = DIRECTION ( 'NONE',  ( -0.000000000000000000, -0.000000000000000000, -1.000000000000000000 ) ) ;
#165 = ORIENTED_EDGE ( 'NONE', *, *, #18, .T. ) ;
#166 = CARTESIAN_POINT ( 'NONE',  ( 0.000000000000000000, 0.000000000000000000, 0.000000000000000000 ) ) ;
#167 = DIRECTION ( 'NONE',  ( 1.000000000000000000, 0.000000000000000000, -0.000000000000000000 ) ) ;
#168 = UNCERTAINTY_MEASURE_WITH_UNIT (LENGTH_MEASURE( 1.000000000000000082E-05 ), #208, 'distance_accuracy_value', 'NONE');
#169 = ORIENTED_EDGE ( 'NONE', *, *, #71, .T. ) ;
#170 = ORIENTED_EDGE ( 'NONE', *, *, #190, .F. ) ;
#171 = ORIENTED_EDGE ( 'NONE', *, *, #96, .F. ) ;
#172 = PRODUCT_DEFINITION_FORMATION_WITH_SPECIFIED_SOURCE ( 'LIBOVOLNÝ', '', #19, .NOT_KNOWN. ) ;
#173 = PERSON_AND_ORGANIZATION ( #17, #216 ) ;
#174 = APPROVAL ( #131, 'NEURÈENÝ' ) ;
#175 = EDGE_CURVE ( 'NONE', #214, #209, #179, .T. ) ;
#176 = APPROVAL_ROLE ( '' ) ;
#177 = AXIS2_PLACEMENT_3D ( 'NONE', #213, #6, #45 ) ;
#178 = VECTOR ( 'NONE', #240, 1000.000000000000000 ) ;
#179 = CIRCLE ( 'NONE', #130, 1.600000000000000089 ) ;
#180 = DIRECTION ( 'NONE',  ( 1.000000000000000000, 0.000000000000000000, 0.000000000000000000 ) ) ;
#181 = COORDINATED_UNIVERSAL_TIME_OFFSET ( 1, 0, .AHEAD. ) ;
#182 = DIRECTION ( 'NONE',  ( 0.000000000000000000, 0.000000000000000000, 1.000000000000000000 ) ) ;
#183 = APPROVAL_DATE_TIME ( #94, #72 ) ;
#184 = AXIS2_PLACEMENT_3D ( 'NONE', #75, #59, #186 ) ;
#185 = DIRECTION ( 'NONE',  ( 1.000000000000000000, 0.000000000000000000, 0.000000000000000000 ) ) ;
#186 = DIRECTION ( 'NONE',  ( 1.000000000000000000, 0.000000000000000000, 0.000000000000000000 ) ) ;
#187 = CARTESIAN_POINT ( 'NONE',  ( 3.000000000000000444, 3.673940397442060361E-16, 0.000000000000000000 ) ) ;
#188 = DIRECTION ( 'NONE',  ( -0.000000000000000000, -0.000000000000000000, -1.000000000000000000 ) ) ;
#189 = PERSON_AND_ORGANIZATION_ROLE ( 'design_owner' ) ;
#190 = EDGE_CURVE ( 'NONE', #46, #214, #109, .T. ) ;
#191 = CARTESIAN_POINT ( 'NONE',  ( 0.000000000000000000, 0.000000000000000000, 3.000000000000000000 ) ) ;
#192 = ORIENTED_EDGE ( 'NONE', *, *, #133, .F. ) ;
#193 = CC_DESIGN_APPROVAL ( #174, ( #53 ) ) ;
#194 =( GEOMETRIC_REPRESENTATION_CONTEXT ( 3 ) GLOBAL_UNCERTAINTY_ASSIGNED_CONTEXT ( ( #168 ) ) GLOBAL_UNIT_ASSIGNED_CONTEXT ( ( #208, #115, #243 ) ) REPRESENTATION_CONTEXT ( 'NONE', 'WORKASPACE' ) );
#195 = EDGE_LOOP ( 'NONE', ( #126, #249 ) ) ;
#196 = CALENDAR_DATE ( 2022, 7, 7 ) ;
#197 = APPROVAL_DATE_TIME ( #104, #174 ) ;
#198 = AXIS2_PLACEMENT_3D ( 'NONE', #242, #78, #180 ) ;
#199 = LOCAL_TIME ( 19, 54, 56.00000000000000000, #137 ) ;
#200 = ADVANCED_FACE ( 'NONE', ( #161 ), #222, .T. ) ;
#201 = AXIS2_PLACEMENT_3D ( 'NONE', #98, #36, #103 ) ;
#202 = AXIS2_PLACEMENT_3D ( 'NONE', #166, #245, #136 ) ;
#203 = DIRECTION ( 'NONE',  ( 1.000000000000000000, 0.000000000000000000, 0.000000000000000000 ) ) ;
#204 = DIRECTION ( 'NONE',  ( -0.000000000000000000, -0.000000000000000000, -1.000000000000000000 ) ) ;
#205 = APPROVAL_ROLE ( '' ) ;
#206 = AXIS2_PLACEMENT_3D ( 'NONE', #27, #146, #91 ) ;
#207 = DIRECTION ( 'NONE',  ( -0.000000000000000000, -0.000000000000000000, -1.000000000000000000 ) ) ;
#208 =( LENGTH_UNIT ( ) NAMED_UNIT ( * ) SI_UNIT ( .MILLI., .METRE. ) );
#209 = VERTEX_POINT ( 'NONE', #95 ) ;
#210 = CARTESIAN_POINT ( 'NONE',  ( 0.000000000000000000, 0.000000000000000000, 3.000000000000000000 ) ) ;
#211 = COORDINATED_UNIVERSAL_TIME_OFFSET ( 1, 0, .AHEAD. ) ;
#212 = CARTESIAN_POINT ( 'NONE',  ( -3.000000000000000444, 0.000000000000000000, 0.000000000000000000 ) ) ;
#213 = CARTESIAN_POINT ( 'NONE',  ( 0.000000000000000000, 0.000000000000000000, 3.000000000000000000 ) ) ;
#214 = VERTEX_POINT ( 'NONE', #79 ) ;
#215 = DIRECTION ( 'NONE',  ( 1.000000000000000000, 0.000000000000000000, 0.000000000000000000 ) ) ;
#216 = ORGANIZATION ( 'NEURÈENÝ', 'NEURÈENÝ', '' ) ;
#217 = AXIS2_PLACEMENT_3D ( 'NONE', #220, #24, #4 ) ;
#218 = DIRECTION ( 'NONE',  ( 0.000000000000000000, 0.000000000000000000, 1.000000000000000000 ) ) ;
#219 = FACE_OUTER_BOUND ( 'NONE', #195, .T. ) ;
#220 = CARTESIAN_POINT ( 'NONE',  ( 0.000000000000000000, 0.000000000000000000, 253.0000000000000000 ) ) ;
#221 = EDGE_CURVE ( 'NONE', #64, #48, #5, .T. ) ;
#222 = CYLINDRICAL_SURFACE ( 'NONE', #156, 1.600000000000000089 ) ;
#223 = DATE_AND_TIME ( #100, #152 ) ;
#224 = VECTOR ( 'NONE', #188, 1000.000000000000000 ) ;
#225 = EDGE_LOOP ( 'NONE', ( #171, #61 ) ) ;
#226 = CARTESIAN_POINT ( 'NONE',  ( 0.000000000000000000, 0.000000000000000000, 3.000000000000000000 ) ) ;
#227 = DIRECTION ( 'NONE',  ( 0.000000000000000000, 0.000000000000000000, 1.000000000000000000 ) ) ;
#228 = APPLICATION_CONTEXT ( 'configuration controlled 3d designs of mechanical parts and assemblies' ) ;
#229 = EDGE_LOOP ( 'NONE', ( #251, #120, #84, #11 ) ) ;
#230 = CARTESIAN_POINT ( 'NONE',  ( 3.000000000000000444, 3.673940397442060361E-16, 3.000000000000000000 ) ) ;
#231 = EDGE_LOOP ( 'NONE', ( #170, #232, #123, #252 ) ) ;
#232 = ORIENTED_EDGE ( 'NONE', *, *, #2, .F. ) ;
#233 = DATE_AND_TIME ( #255, #237 ) ;
#234 = CC_DESIGN_PERSON_AND_ORGANIZATION_ASSIGNMENT ( #87, #16, ( #172 ) ) ;
#235 = MANIFOLD_SOLID_BREP ( 'Pøidat vysunutím3', #140 ) ;
#236 = SHAPE_DEFINITION_REPRESENTATION ( #22, #238 ) ;
#237 = LOCAL_TIME ( 19, 54, 56.00000000000000000, #51 ) ;
#238 = ADVANCED_BREP_SHAPE_REPRESENTATION ( '7ff6', ( #235, #184 ), #194 ) ;
#239 = PERSON_AND_ORGANIZATION ( #17, #216 ) ;
#240 = DIRECTION ( 'NONE',  ( -0.000000000000000000, -0.000000000000000000, -1.000000000000000000 ) ) ;
#241 = APPLICATION_PROTOCOL_DEFINITION ( 'international standard', 'config_control_design', 1994, #228 ) ;
#242 = CARTESIAN_POINT ( 'NONE',  ( 0.000000000000000000, 0.000000000000000000, 3.000000000000000000 ) ) ;
#243 =( NAMED_UNIT ( * ) SI_UNIT ( $, .STERADIAN. ) SOLID_ANGLE_UNIT ( ) );
#244 = ADVANCED_FACE ( 'NONE', ( #219 ), #139, .F. ) ;
#245 = DIRECTION ( 'NONE',  ( 0.000000000000000000, 0.000000000000000000, 1.000000000000000000 ) ) ;
#246 = AXIS2_PLACEMENT_3D ( 'NONE', #163, #182, #185 ) ;
#247 = ORIENTED_EDGE ( 'NONE', *, *, #69, .F. ) ;
#248 = DIRECTION ( 'NONE',  ( 0.000000000000000000, 0.000000000000000000, 1.000000000000000000 ) ) ;
#249 = ORIENTED_EDGE ( 'NONE', *, *, #71, .F. ) ;
#250 = CIRCLE ( 'NONE', #202, 3.000000000000000444 ) ;
#251 = ORIENTED_EDGE ( 'NONE', *, *, #108, .F. ) ;
#252 = ORIENTED_EDGE ( 'NONE', *, *, #96, .T. ) ;
#253 = CC_DESIGN_APPROVAL ( #80, ( #30 ) ) ;
#254 = AXIS2_PLACEMENT_3D ( 'NONE', #191, #83, #67 ) ;
#255 = CALENDAR_DATE ( 2022, 7, 7 ) ;
ENDSEC;
END-ISO-10303-21;
