ISO-10303-21;
HEADER;
FILE_DESCRIPTION (( 'STEP AP203' ),
    '1' );
FILE_NAME ('09bc.STEP',
    '2022-07-07T17:48:55',
    ( '' ),
    ( '' ),
    'SwSTEP 2.0',
    'SolidWorks 2019',
    '' );
FILE_SCHEMA (( 'CONFIG_CONTROL_DESIGN' ));
ENDSEC;

DATA;
#1 = DIRECTION ( 'NONE',  ( -0.000000000000000000, -0.000000000000000000, -1.000000000000000000 ) ) ;
#2 = AXIS2_PLACEMENT_3D ( 'NONE', #220, #200, #70 ) ;
#3 = EDGE_LOOP ( 'NONE', ( #184, #49 ) ) ;
#4 = EDGE_CURVE ( 'NONE', #5, #136, #202, .T. ) ;
#5 = VERTEX_POINT ( 'NONE', #63 ) ;
#6 = EDGE_LOOP ( 'NONE', ( #237, #217, #165, #174 ) ) ;
#7 = COORDINATED_UNIVERSAL_TIME_OFFSET ( 1, 0, .AHEAD. ) ;
#8 = ORIENTED_EDGE ( 'NONE', *, *, #250, .T. ) ;
#9 = DATE_AND_TIME ( #108, #226 ) ;
#10 = AXIS2_PLACEMENT_3D ( 'NONE', #88, #103, #238 ) ;
#11 = APPROVAL ( #55, 'NEURÈENÝ' ) ;
#12 = ORIENTED_EDGE ( 'NONE', *, *, #142, .F. ) ;
#13 = ORIENTED_EDGE ( 'NONE', *, *, #133, .T. ) ;
#14 = DESIGN_CONTEXT ( 'detailed design', #65, 'design' ) ;
#15 = CARTESIAN_POINT ( 'NONE',  ( -2.250000000000000000, 0.000000000000000000, 3.000000000000000000 ) ) ;
#16 = DIRECTION ( 'NONE',  ( 0.000000000000000000, 0.000000000000000000, 1.000000000000000000 ) ) ;
#17 = CALENDAR_DATE ( 2022, 7, 7 ) ;
#18 = CARTESIAN_POINT ( 'NONE',  ( 0.000000000000000000, 0.000000000000000000, 3.000000000000000000 ) ) ;
#19 =( NAMED_UNIT ( * ) PLANE_ANGLE_UNIT ( ) SI_UNIT ( $, .RADIAN. ) );
#20 = VECTOR ( 'NONE', #229, 1000.000000000000000 ) ;
#21 = CARTESIAN_POINT ( 'NONE',  ( 0.000000000000000000, 0.000000000000000000, 3.000000000000000000 ) ) ;
#22 = AXIS2_PLACEMENT_3D ( 'NONE', #234, #84, #118 ) ;
#23 = FACE_OUTER_BOUND ( 'NONE', #177, .T. ) ;
#24 = AXIS2_PLACEMENT_3D ( 'NONE', #192, #232, #60 ) ;
#25 = EDGE_LOOP ( 'NONE', ( #12, #8, #251, #81 ) ) ;
#26 = EDGE_CURVE ( 'NONE', #74, #5, #105, .T. ) ;
#27 = ORIENTED_EDGE ( 'NONE', *, *, #26, .F. ) ;
#28 = APPROVAL_STATUS ( 'not_yet_approved' ) ;
#29 = AXIS2_PLACEMENT_3D ( 'NONE', #18, #16, #215 ) ;
#30 = ORIENTED_EDGE ( 'NONE', *, *, #171, .T. ) ;
#31 = EDGE_CURVE ( 'NONE', #214, #240, #106, .T. ) ;
#32 = CIRCLE ( 'NONE', #197, 2.250000000000000000 ) ;
#33 = DIRECTION ( 'NONE',  ( 1.000000000000000000, 0.000000000000000000, 0.000000000000000000 ) ) ;
#34 = PERSON_AND_ORGANIZATION ( #147, #35 ) ;
#35 = ORGANIZATION ( 'NEURÈENÝ', 'NEURÈENÝ', '' ) ;
#36 = CARTESIAN_POINT ( 'NONE',  ( 2.250000000000000000, 2.755455298081544285E-16, 203.0000000000000000 ) ) ;
#37 = CALENDAR_DATE ( 2022, 7, 7 ) ;
#38 = APPLICATION_PROTOCOL_DEFINITION ( 'international standard', 'config_control_design', 1994, #183 ) ;
#39 = DIRECTION ( 'NONE',  ( 0.000000000000000000, 0.000000000000000000, 1.000000000000000000 ) ) ;
#40 = CARTESIAN_POINT ( 'NONE',  ( 0.000000000000000000, 0.000000000000000000, 0.000000000000000000 ) ) ;
#41 = FACE_OUTER_BOUND ( 'NONE', #140, .T. ) ;
#42 = CIRCLE ( 'NONE', #186, 2.250000000000000000 ) ;
#43 = ORIENTED_EDGE ( 'NONE', *, *, #171, .F. ) ;
#44 = ORIENTED_EDGE ( 'NONE', *, *, #206, .T. ) ;
#45 = EDGE_CURVE ( 'NONE', #125, #154, #32, .T. ) ;
#46 = FACE_OUTER_BOUND ( 'NONE', #6, .T. ) ;
#47 = APPROVAL_ROLE ( '' ) ;
#48 = SHAPE_DEFINITION_REPRESENTATION ( #62, #252 ) ;
#49 = ORIENTED_EDGE ( 'NONE', *, *, #45, .F. ) ;
#50 = ORIENTED_EDGE ( 'NONE', *, *, #75, .T. ) ;
#51 = LOCAL_TIME ( 19, 48, 55.00000000000000000, #7 ) ;
#52 = ADVANCED_FACE ( 'NONE', ( #23 ), #199, .T. ) ;
#53 = UNCERTAINTY_MEASURE_WITH_UNIT (LENGTH_MEASURE( 1.000000000000000082E-05 ), #98, 'distance_accuracy_value', 'NONE');
#54 = FACE_OUTER_BOUND ( 'NONE', #107, .T. ) ;
#55 = APPROVAL_STATUS ( 'not_yet_approved' ) ;
#56 = AXIS2_PLACEMENT_3D ( 'NONE', #178, #254, #219 ) ;
#57 = CARTESIAN_POINT ( 'NONE',  ( 0.000000000000000000, 0.000000000000000000, 3.000000000000000000 ) ) ;
#58 = ADVANCED_FACE ( 'NONE', ( #46 ), #157, .T. ) ;
#59 = APPROVAL_DATE_TIME ( #9, #239 ) ;
#60 = DIRECTION ( 'NONE',  ( 1.000000000000000000, 0.000000000000000000, 0.000000000000000000 ) ) ;
#61 = CIRCLE ( 'NONE', #212, 4.000000000000000000 ) ;
#62 = PRODUCT_DEFINITION_SHAPE ( 'NONE', 'NONE',  #158 ) ;
#63 = CARTESIAN_POINT ( 'NONE',  ( 4.000000000000000000, 4.898587196589412829E-16, 0.000000000000000000 ) ) ;
#64 =( GEOMETRIC_REPRESENTATION_CONTEXT ( 3 ) GLOBAL_UNCERTAINTY_ASSIGNED_CONTEXT ( ( #53 ) ) GLOBAL_UNIT_ASSIGNED_CONTEXT ( ( #98, #19, #170 ) ) REPRESENTATION_CONTEXT ( 'NONE', 'WORKASPACE' ) );
#65 = APPLICATION_CONTEXT ( 'configuration controlled 3d designs of mechanical parts and assemblies' ) ;
#66 = CARTESIAN_POINT ( 'NONE',  ( 0.000000000000000000, 0.000000000000000000, 203.0000000000000000 ) ) ;
#67 = DIRECTION ( 'NONE',  ( 0.000000000000000000, 0.000000000000000000, 1.000000000000000000 ) ) ;
#68 = MANIFOLD_SOLID_BREP ( 'Pøidat vysunutím3', #130 ) ;
#69 = CARTESIAN_POINT ( 'NONE',  ( 0.000000000000000000, 0.000000000000000000, 0.000000000000000000 ) ) ;
#70 = DIRECTION ( 'NONE',  ( -1.000000000000000000, 0.000000000000000000, 0.000000000000000000 ) ) ;
#71 = PERSON_AND_ORGANIZATION ( #147, #35 ) ;
#72 = CC_DESIGN_APPROVAL ( #11, ( #176 ) ) ;
#73 = CALENDAR_DATE ( 2022, 7, 7 ) ;
#74 = VERTEX_POINT ( 'NONE', #101 ) ;
#75 = EDGE_CURVE ( 'NONE', #136, #5, #201, .T. ) ;
#76 = DIRECTION ( 'NONE',  ( -0.000000000000000000, -0.000000000000000000, -1.000000000000000000 ) ) ;
#77 = COORDINATED_UNIVERSAL_TIME_OFFSET ( 1, 0, .AHEAD. ) ;
#78 = LOCAL_TIME ( 19, 48, 55.00000000000000000, #228 ) ;
#79 = MECHANICAL_CONTEXT ( 'NONE', #183, 'mechanical' ) ;
#80 = ORIENTED_EDGE ( 'NONE', *, *, #250, .F. ) ;
#81 = ORIENTED_EDGE ( 'NONE', *, *, #133, .F. ) ;
#82 = CC_DESIGN_PERSON_AND_ORGANIZATION_ASSIGNMENT ( #146, #163, ( #113 ) ) ;
#83 = DIRECTION ( 'NONE',  ( 1.000000000000000000, 0.000000000000000000, 0.000000000000000000 ) ) ;
#84 = DIRECTION ( 'NONE',  ( 0.000000000000000000, 0.000000000000000000, 1.000000000000000000 ) ) ;
#85 = CARTESIAN_POINT ( 'NONE',  ( 0.000000000000000000, 0.000000000000000000, 3.000000000000000000 ) ) ;
#86 = AXIS2_PLACEMENT_3D ( 'NONE', #69, #156, #180 ) ;
#87 = ORIENTED_EDGE ( 'NONE', *, *, #31, .T. ) ;
#88 = CARTESIAN_POINT ( 'NONE',  ( 0.000000000000000000, 0.000000000000000000, 203.0000000000000000 ) ) ;
#89 = APPROVAL_PERSON_ORGANIZATION ( #241, #221, #47 ) ;
#90 = PERSON_AND_ORGANIZATION ( #147, #35 ) ;
#91 = APPROVAL_DATE_TIME ( #123, #221 ) ;
#92 = CIRCLE ( 'NONE', #29, 4.000000000000000000 ) ;
#93 = ADVANCED_FACE ( 'NONE', ( #222 ), #141, .T. ) ;
#94 = EDGE_LOOP ( 'NONE', ( #80, #243, #13, #121 ) ) ;
#95 = CARTESIAN_POINT ( 'NONE',  ( -4.000000000000000000, 0.000000000000000000, 3.000000000000000000 ) ) ;
#96 = FACE_OUTER_BOUND ( 'NONE', #25, .T. ) ;
#97 = CARTESIAN_POINT ( 'NONE',  ( 2.250000000000000000, 2.755455298081544285E-16, 203.0000000000000000 ) ) ;
#98 =( LENGTH_UNIT ( ) NAMED_UNIT ( * ) SI_UNIT ( .MILLI., .METRE. ) );
#99 = LINE ( 'NONE', #151, #207 ) ;
#100 = ADVANCED_FACE ( 'NONE', ( #41 ), #117, .F. ) ;
#101 = CARTESIAN_POINT ( 'NONE',  ( 4.000000000000000000, 4.898587196589412829E-16, 3.000000000000000000 ) ) ;
#102 = CC_DESIGN_DATE_AND_TIME_ASSIGNMENT ( #161, #112, ( #176 ) ) ;
#103 = DIRECTION ( 'NONE',  ( -0.000000000000000000, -0.000000000000000000, -1.000000000000000000 ) ) ;
#104 = CARTESIAN_POINT ( 'NONE',  ( 0.000000000000000000, 0.000000000000000000, 3.000000000000000000 ) ) ;
#105 = LINE ( 'NONE', #120, #162 ) ;
#106 = CIRCLE ( 'NONE', #56, 2.250000000000000000 ) ;
#107 = EDGE_LOOP ( 'NONE', ( #30, #137 ) ) ;
#108 = CALENDAR_DATE ( 2022, 7, 7 ) ;
#109 = ORIENTED_EDGE ( 'NONE', *, *, #142, .T. ) ;
#110 = PERSON_AND_ORGANIZATION ( #147, #35 ) ;
#111 = VECTOR ( 'NONE', #235, 1000.000000000000000 ) ;
#112 = DATE_TIME_ROLE ( 'classification_date' ) ;
#113 = PRODUCT_DEFINITION_FORMATION_WITH_SPECIFIED_SOURCE ( 'LIBOVOLNÝ', '', #135, .NOT_KNOWN. ) ;
#114 = EDGE_CURVE ( 'NONE', #154, #125, #42, .T. ) ;
#115 = FACE_OUTER_BOUND ( 'NONE', #187, .T. ) ;
#116 = DIRECTION ( 'NONE',  ( 0.000000000000000000, 0.000000000000000000, 1.000000000000000000 ) ) ;
#117 = PLANE ( 'NONE',  #181 ) ;
#118 = DIRECTION ( 'NONE',  ( 1.000000000000000000, 0.000000000000000000, 0.000000000000000000 ) ) ;
#119 = APPROVAL_PERSON_ORGANIZATION ( #71, #11, #191 ) ;
#120 = CARTESIAN_POINT ( 'NONE',  ( 4.000000000000000000, 4.898587196589412829E-16, 3.000000000000000000 ) ) ;
#121 = ORIENTED_EDGE ( 'NONE', *, *, #114, .T. ) ;
#122 = CC_DESIGN_DATE_AND_TIME_ASSIGNMENT ( #210, #203, ( #158 ) ) ;
#123 = DATE_AND_TIME ( #37, #164 ) ;
#124 = CIRCLE ( 'NONE', #218, 2.250000000000000000 ) ;
#125 = VERTEX_POINT ( 'NONE', #155 ) ;
#126 = PRODUCT_RELATED_PRODUCT_CATEGORY ( 'detail', '', ( #135 ) ) ;
#127 = AXIS2_PLACEMENT_3D ( 'NONE', #57, #172, #128 ) ;
#128 = DIRECTION ( 'NONE',  ( 1.000000000000000000, 0.000000000000000000, -0.000000000000000000 ) ) ;
#129 = APPLICATION_PROTOCOL_DEFINITION ( 'international standard', 'config_control_design', 1994, #65 ) ;
#130 = CLOSED_SHELL ( 'NONE', ( #195, #58, #52, #233, #100, #93, #179 ) ) ;
#131 = PERSON_AND_ORGANIZATION ( #147, #35 ) ;
#132 = DIRECTION ( 'NONE',  ( 0.000000000000000000, 0.000000000000000000, 1.000000000000000000 ) ) ;
#133 = EDGE_CURVE ( 'NONE', #214, #154, #139, .T. ) ;
#134 = DIRECTION ( 'NONE',  ( 1.000000000000000000, 0.000000000000000000, 0.000000000000000000 ) ) ;
#135 = PRODUCT ( '09bc', '09bc', '', ( #79 ) ) ;
#136 = VERTEX_POINT ( 'NONE', #236 ) ;
#137 = ORIENTED_EDGE ( 'NONE', *, *, #188, .T. ) ;
#138 = DIRECTION ( 'NONE',  ( 1.000000000000000000, 0.000000000000000000, 0.000000000000000000 ) ) ;
#139 = LINE ( 'NONE', #198, #111 ) ;
#140 = EDGE_LOOP ( 'NONE', ( #204, #189 ) ) ;
#141 = CYLINDRICAL_SURFACE ( 'NONE', #10, 2.250000000000000000 ) ;
#142 = EDGE_CURVE ( 'NONE', #240, #214, #124, .T. ) ;
#143 = DIRECTION ( 'NONE',  ( 0.000000000000000000, 0.000000000000000000, 1.000000000000000000 ) ) ;
#144 = DATE_AND_TIME ( #17, #249 ) ;
#145 = CC_DESIGN_PERSON_AND_ORGANIZATION_ASSIGNMENT ( #110, #242, ( #113 ) ) ;
#146 = PERSON_AND_ORGANIZATION ( #147, #35 ) ;
#147 = PERSON ( 'NEURÈENÝ', 'NEURÈENÝ', 'NEURÈENÝ', ('NEURÈENÝ'), ('NEURÈENÝ'), ('NEURÈENÝ') ) ;
#148 = PLANE ( 'NONE',  #245 ) ;
#149 = PERSON_AND_ORGANIZATION_ROLE ( 'design_owner' ) ;
#150 = PERSON_AND_ORGANIZATION_ROLE ( 'creator' ) ;
#151 = CARTESIAN_POINT ( 'NONE',  ( -4.000000000000000000, 0.000000000000000000, 3.000000000000000000 ) ) ;
#152 = CC_DESIGN_PERSON_AND_ORGANIZATION_ASSIGNMENT ( #90, #205, ( #176 ) ) ;
#153 = CARTESIAN_POINT ( 'NONE',  ( 0.000000000000000000, 0.000000000000000000, 3.000000000000000000 ) ) ;
#154 = VERTEX_POINT ( 'NONE', #15 ) ;
#155 = CARTESIAN_POINT ( 'NONE',  ( 2.250000000000000000, 2.755455298081544285E-16, 3.000000000000000000 ) ) ;
#156 = DIRECTION ( 'NONE',  ( 0.000000000000000000, 0.000000000000000000, 1.000000000000000000 ) ) ;
#157 = CYLINDRICAL_SURFACE ( 'NONE', #230, 4.000000000000000000 ) ;
#158 = PRODUCT_DEFINITION ( 'NEZNÁMÝ', '', #113, #14 ) ;
#159 = DIRECTION ( 'NONE',  ( -0.000000000000000000, -0.000000000000000000, -1.000000000000000000 ) ) ;
#160 = APPROVAL_PERSON_ORGANIZATION ( #231, #239, #168 ) ;
#161 = DATE_AND_TIME ( #225, #51 ) ;
#162 = VECTOR ( 'NONE', #1, 1000.000000000000000 ) ;
#163 = PERSON_AND_ORGANIZATION_ROLE ( 'creator' ) ;
#164 = LOCAL_TIME ( 19, 48, 55.00000000000000000, #77 ) ;
#165 = ORIENTED_EDGE ( 'NONE', *, *, #4, .T. ) ;
#166 = CC_DESIGN_PERSON_AND_ORGANIZATION_ASSIGNMENT ( #34, #150, ( #158 ) ) ;
#167 = CARTESIAN_POINT ( 'NONE',  ( -2.250000000000000000, 0.000000000000000000, 203.0000000000000000 ) ) ;
#168 = APPROVAL_ROLE ( '' ) ;
#169 = AXIS2_PLACEMENT_3D ( 'NONE', #213, #253, #193 ) ;
#170 =( NAMED_UNIT ( * ) SI_UNIT ( $, .STERADIAN. ) SOLID_ANGLE_UNIT ( ) );
#171 = EDGE_CURVE ( 'NONE', #223, #74, #92, .T. ) ;
#172 = DIRECTION ( 'NONE',  ( 0.000000000000000000, 0.000000000000000000, 1.000000000000000000 ) ) ;
#173 = CC_DESIGN_APPROVAL ( #221, ( #158 ) ) ;
#174 = ORIENTED_EDGE ( 'NONE', *, *, #206, .F. ) ;
#175 = DIRECTION ( 'NONE',  ( 0.000000000000000000, 0.000000000000000000, 1.000000000000000000 ) ) ;
#176 = SECURITY_CLASSIFICATION ( '', '', #185 ) ;
#177 = EDGE_LOOP ( 'NONE', ( #27, #43, #44, #50 ) ) ;
#178 = CARTESIAN_POINT ( 'NONE',  ( 0.000000000000000000, 0.000000000000000000, 203.0000000000000000 ) ) ;
#179 = ADVANCED_FACE ( 'NONE', ( #115 ), #148, .T. ) ;
#180 = DIRECTION ( 'NONE',  ( 1.000000000000000000, 0.000000000000000000, 0.000000000000000000 ) ) ;
#181 = AXIS2_PLACEMENT_3D ( 'NONE', #40, #116, #196 ) ;
#182 = CC_DESIGN_APPROVAL ( #239, ( #113 ) ) ;
#183 = APPLICATION_CONTEXT ( 'configuration controlled 3d designs of mechanical parts and assemblies' ) ;
#184 = ORIENTED_EDGE ( 'NONE', *, *, #114, .F. ) ;
#185 = SECURITY_CLASSIFICATION_LEVEL ( 'unclassified' ) ;
#186 = AXIS2_PLACEMENT_3D ( 'NONE', #21, #175, #83 ) ;
#187 = EDGE_LOOP ( 'NONE', ( #87, #109 ) ) ;
#188 = EDGE_CURVE ( 'NONE', #74, #223, #61, .T. ) ;
#189 = ORIENTED_EDGE ( 'NONE', *, *, #4, .F. ) ;
#190 = PLANE ( 'NONE',  #127 ) ;
#191 = APPROVAL_ROLE ( '' ) ;
#192 = CARTESIAN_POINT ( 'NONE',  ( 0.000000000000000000, 0.000000000000000000, 0.000000000000000000 ) ) ;
#193 = DIRECTION ( 'NONE',  ( -1.000000000000000000, 0.000000000000000000, 0.000000000000000000 ) ) ;
#194 = CC_DESIGN_SECURITY_CLASSIFICATION ( #176, ( #113 ) ) ;
#195 = ADVANCED_FACE ( 'NONE', ( #96 ), #244, .T. ) ;
#196 = DIRECTION ( 'NONE',  ( 1.000000000000000000, 0.000000000000000000, -0.000000000000000000 ) ) ;
#197 = AXIS2_PLACEMENT_3D ( 'NONE', #85, #143, #138 ) ;
#198 = CARTESIAN_POINT ( 'NONE',  ( -2.250000000000000000, 0.000000000000000000, 203.0000000000000000 ) ) ;
#199 = CYLINDRICAL_SURFACE ( 'NONE', #2, 4.000000000000000000 ) ;
#200 = DIRECTION ( 'NONE',  ( -0.000000000000000000, -0.000000000000000000, -1.000000000000000000 ) ) ;
#201 = CIRCLE ( 'NONE', #86, 4.000000000000000000 ) ;
#202 = CIRCLE ( 'NONE', #22, 4.000000000000000000 ) ;
#203 = DATE_TIME_ROLE ( 'creation_date' ) ;
#204 = ORIENTED_EDGE ( 'NONE', *, *, #75, .F. ) ;
#205 = PERSON_AND_ORGANIZATION_ROLE ( 'classification_officer' ) ;
#206 = EDGE_CURVE ( 'NONE', #223, #136, #99, .T. ) ;
#207 = VECTOR ( 'NONE', #76, 1000.000000000000000 ) ;
#208 = COORDINATED_UNIVERSAL_TIME_OFFSET ( 1, 0, .AHEAD. ) ;
#209 = LINE ( 'NONE', #36, #20 ) ;
#210 = DATE_AND_TIME ( #73, #78 ) ;
#211 = COORDINATED_UNIVERSAL_TIME_OFFSET ( 1, 0, .AHEAD. ) ;
#212 = AXIS2_PLACEMENT_3D ( 'NONE', #153, #132, #134 ) ;
#213 = CARTESIAN_POINT ( 'NONE',  ( 0.000000000000000000, 0.000000000000000000, 203.0000000000000000 ) ) ;
#214 = VERTEX_POINT ( 'NONE', #167 ) ;
#215 = DIRECTION ( 'NONE',  ( 1.000000000000000000, 0.000000000000000000, 0.000000000000000000 ) ) ;
#216 = CC_DESIGN_PERSON_AND_ORGANIZATION_ASSIGNMENT ( #131, #149, ( #135 ) ) ;
#217 = ORIENTED_EDGE ( 'NONE', *, *, #26, .T. ) ;
#218 = AXIS2_PLACEMENT_3D ( 'NONE', #66, #67, #33 ) ;
#219 = DIRECTION ( 'NONE',  ( 1.000000000000000000, 0.000000000000000000, 0.000000000000000000 ) ) ;
#220 = CARTESIAN_POINT ( 'NONE',  ( 0.000000000000000000, 0.000000000000000000, 3.000000000000000000 ) ) ;
#221 = APPROVAL ( #246, 'NEURÈENÝ' ) ;
#222 = FACE_OUTER_BOUND ( 'NONE', #94, .T. ) ;
#223 = VERTEX_POINT ( 'NONE', #95 ) ;
#224 = APPROVAL_DATE_TIME ( #144, #11 ) ;
#225 = CALENDAR_DATE ( 2022, 7, 7 ) ;
#226 = LOCAL_TIME ( 19, 48, 55.00000000000000000, #211 ) ;
#227 = FACE_BOUND ( 'NONE', #3, .T. ) ;
#228 = COORDINATED_UNIVERSAL_TIME_OFFSET ( 1, 0, .AHEAD. ) ;
#229 = DIRECTION ( 'NONE',  ( -0.000000000000000000, -0.000000000000000000, -1.000000000000000000 ) ) ;
#230 = AXIS2_PLACEMENT_3D ( 'NONE', #104, #159, #255 ) ;
#231 = PERSON_AND_ORGANIZATION ( #147, #35 ) ;
#232 = DIRECTION ( 'NONE',  ( 0.000000000000000000, 0.000000000000000000, 1.000000000000000000 ) ) ;
#233 = ADVANCED_FACE ( 'NONE', ( #227, #54 ), #190, .T. ) ;
#234 = CARTESIAN_POINT ( 'NONE',  ( 0.000000000000000000, 0.000000000000000000, 0.000000000000000000 ) ) ;
#235 = DIRECTION ( 'NONE',  ( -0.000000000000000000, -0.000000000000000000, -1.000000000000000000 ) ) ;
#236 = CARTESIAN_POINT ( 'NONE',  ( -4.000000000000000000, 0.000000000000000000, 0.000000000000000000 ) ) ;
#237 = ORIENTED_EDGE ( 'NONE', *, *, #188, .F. ) ;
#238 = DIRECTION ( 'NONE',  ( -1.000000000000000000, 0.000000000000000000, 0.000000000000000000 ) ) ;
#239 = APPROVAL ( #28, 'NEURÈENÝ' ) ;
#240 = VERTEX_POINT ( 'NONE', #97 ) ;
#241 = PERSON_AND_ORGANIZATION ( #147, #35 ) ;
#242 = PERSON_AND_ORGANIZATION_ROLE ( 'design_supplier' ) ;
#243 = ORIENTED_EDGE ( 'NONE', *, *, #31, .F. ) ;
#244 = CYLINDRICAL_SURFACE ( 'NONE', #169, 2.250000000000000000 ) ;
#245 = AXIS2_PLACEMENT_3D ( 'NONE', #248, #39, #247 ) ;
#246 = APPROVAL_STATUS ( 'not_yet_approved' ) ;
#247 = DIRECTION ( 'NONE',  ( 1.000000000000000000, 0.000000000000000000, -0.000000000000000000 ) ) ;
#248 = CARTESIAN_POINT ( 'NONE',  ( 0.000000000000000000, 0.000000000000000000, 203.0000000000000000 ) ) ;
#249 = LOCAL_TIME ( 19, 48, 55.00000000000000000, #208 ) ;
#250 = EDGE_CURVE ( 'NONE', #240, #125, #209, .T. ) ;
#251 = ORIENTED_EDGE ( 'NONE', *, *, #45, .T. ) ;
#252 = ADVANCED_BREP_SHAPE_REPRESENTATION ( '09bc', ( #68, #24 ), #64 ) ;
#253 = DIRECTION ( 'NONE',  ( -0.000000000000000000, -0.000000000000000000, -1.000000000000000000 ) ) ;
#254 = DIRECTION ( 'NONE',  ( 0.000000000000000000, 0.000000000000000000, 1.000000000000000000 ) ) ;
#255 = DIRECTION ( 'NONE',  ( -1.000000000000000000, 0.000000000000000000, 0.000000000000000000 ) ) ;
ENDSEC;
END-ISO-10303-21;
