ISO-10303-21;
HEADER;
FILE_DESCRIPTION (( 'STEP AP203' ),
    '1' );
FILE_NAME ('5bbb.STEP',
    '2022-07-07T17:28:28',
    ( '' ),
    ( '' ),
    'SwSTEP 2.0',
    'SolidWorks 2019',
    '' );
FILE_SCHEMA (( 'CONFIG_CONTROL_DESIGN' ));
ENDSEC;

DATA;
#1 = ORIENTED_EDGE ( 'NONE', *, *, #174, .F. ) ;
#2 = DIRECTION ( 'NONE',  ( 0.000000000000000000, 0.000000000000000000, 1.000000000000000000 ) ) ;
#3 = AXIS2_PLACEMENT_3D ( 'NONE', #240, #5, #137 ) ;
#4 = DIRECTION ( 'NONE',  ( 0.000000000000000000, 0.000000000000000000, 1.000000000000000000 ) ) ;
#5 = DIRECTION ( 'NONE',  ( -0.000000000000000000, -0.000000000000000000, -1.000000000000000000 ) ) ;
#6 = DIRECTION ( 'NONE',  ( 0.000000000000000000, 0.000000000000000000, 1.000000000000000000 ) ) ;
#7 = COORDINATED_UNIVERSAL_TIME_OFFSET ( 1, 0, .AHEAD. ) ;
#8 = SECURITY_CLASSIFICATION ( '', '', #50 ) ;
#9 = PERSON_AND_ORGANIZATION ( #188, #192 ) ;
#10 = AXIS2_PLACEMENT_3D ( 'NONE', #97, #6, #87 ) ;
#11 = DATE_TIME_ROLE ( 'classification_date' ) ;
#12 = AXIS2_PLACEMENT_3D ( 'NONE', #210, #73, #176 ) ;
#13 = CARTESIAN_POINT ( 'NONE',  ( 7.000000000000000000, 8.572527594031473190E-16, 5.000000000000000000 ) ) ;
#14 = DIRECTION ( 'NONE',  ( -0.000000000000000000, -0.000000000000000000, -1.000000000000000000 ) ) ;
#15 = ORIENTED_EDGE ( 'NONE', *, *, #80, .T. ) ;
#16 = LOCAL_TIME ( 19, 28, 28.00000000000000000, #126 ) ;
#17 = ADVANCED_BREP_SHAPE_REPRESENTATION ( '5bbb', ( #52, #189 ), #156 ) ;
#18 = ORIENTED_EDGE ( 'NONE', *, *, #218, .F. ) ;
#19 = PLANE ( 'NONE',  #12 ) ;
#20 = DIRECTION ( 'NONE',  ( -0.000000000000000000, -0.000000000000000000, -1.000000000000000000 ) ) ;
#21 = ORIENTED_EDGE ( 'NONE', *, *, #218, .T. ) ;
#22 = CARTESIAN_POINT ( 'NONE',  ( -4.500000000000000000, 0.000000000000000000, 320.0000000000000000 ) ) ;
#23 = CARTESIAN_POINT ( 'NONE',  ( 0.000000000000000000, 0.000000000000000000, 320.0000000000000000 ) ) ;
#24 = CC_DESIGN_APPROVAL ( #34, ( #8 ) ) ;
#25 = FACE_OUTER_BOUND ( 'NONE', #56, .T. ) ;
#26 = DIRECTION ( 'NONE',  ( 1.000000000000000000, 0.000000000000000000, -0.000000000000000000 ) ) ;
#27 = APPROVAL_DATE_TIME ( #140, #34 ) ;
#28 = DIRECTION ( 'NONE',  ( 1.000000000000000000, 0.000000000000000000, 0.000000000000000000 ) ) ;
#29 = VECTOR ( 'NONE', #157, 1000.000000000000000 ) ;
#30 = PERSON_AND_ORGANIZATION ( #188, #192 ) ;
#31 = EDGE_CURVE ( 'NONE', #76, #149, #203, .T. ) ;
#32 = PERSON_AND_ORGANIZATION_ROLE ( 'creator' ) ;
#33 = DIRECTION ( 'NONE',  ( 0.000000000000000000, 0.000000000000000000, 1.000000000000000000 ) ) ;
#34 = APPROVAL ( #51, 'NEURÈENÝ' ) ;
#35 = AXIS2_PLACEMENT_3D ( 'NONE', #201, #102, #183 ) ;
#36 = CIRCLE ( 'NONE', #90, 7.000000000000000000 ) ;
#37 = ORIENTED_EDGE ( 'NONE', *, *, #199, .F. ) ;
#38 = APPROVAL_PERSON_ORGANIZATION ( #66, #69, #49 ) ;
#39 = EDGE_CURVE ( 'NONE', #78, #76, #191, .T. ) ;
#40 = ORIENTED_EDGE ( 'NONE', *, *, #42, .F. ) ;
#41 = DIRECTION ( 'NONE',  ( -1.000000000000000000, 0.000000000000000000, 0.000000000000000000 ) ) ;
#42 = EDGE_CURVE ( 'NONE', #113, #253, #158, .T. ) ;
#43 = CARTESIAN_POINT ( 'NONE',  ( -7.000000000000000000, 0.000000000000000000, 0.000000000000000000 ) ) ;
#44 = DIRECTION ( 'NONE',  ( 1.000000000000000000, 0.000000000000000000, 0.000000000000000000 ) ) ;
#45 = DIRECTION ( 'NONE',  ( 1.000000000000000000, 0.000000000000000000, 0.000000000000000000 ) ) ;
#46 = DIRECTION ( 'NONE',  ( 0.000000000000000000, 0.000000000000000000, 1.000000000000000000 ) ) ;
#47 = EDGE_CURVE ( 'NONE', #152, #113, #171, .T. ) ;
#48 = DATE_AND_TIME ( #103, #255 ) ;
#49 = APPROVAL_ROLE ( '' ) ;
#50 = SECURITY_CLASSIFICATION_LEVEL ( 'unclassified' ) ;
#51 = APPROVAL_STATUS ( 'not_yet_approved' ) ;
#52 = MANIFOLD_SOLID_BREP ( 'Pøidat vysunutím3', #119 ) ;
#53 = AXIS2_PLACEMENT_3D ( 'NONE', #23, #123, #62 ) ;
#54 = DIRECTION ( 'NONE',  ( -0.000000000000000000, -0.000000000000000000, -1.000000000000000000 ) ) ;
#55 = ORIENTED_EDGE ( 'NONE', *, *, #31, .T. ) ;
#56 = EDGE_LOOP ( 'NONE', ( #37, #133, #55, #15 ) ) ;
#57 = ORIENTED_EDGE ( 'NONE', *, *, #47, .F. ) ;
#58 = APPLICATION_PROTOCOL_DEFINITION ( 'international standard', 'config_control_design', 1994, #131 ) ;
#59 = EDGE_LOOP ( 'NONE', ( #132, #254 ) ) ;
#60 = AXIS2_PLACEMENT_3D ( 'NONE', #117, #85, #64 ) ;
#61 = FACE_BOUND ( 'NONE', #59, .T. ) ;
#62 = DIRECTION ( 'NONE',  ( -1.000000000000000000, 0.000000000000000000, 0.000000000000000000 ) ) ;
#63 = FACE_OUTER_BOUND ( 'NONE', #111, .T. ) ;
#64 = DIRECTION ( 'NONE',  ( 1.000000000000000000, 0.000000000000000000, 0.000000000000000000 ) ) ;
#65 = CC_DESIGN_DATE_AND_TIME_ASSIGNMENT ( #48, #11, ( #8 ) ) ;
#66 = PERSON_AND_ORGANIZATION ( #188, #192 ) ;
#67 = CALENDAR_DATE ( 2022, 7, 7 ) ;
#68 = DIRECTION ( 'NONE',  ( 0.000000000000000000, 0.000000000000000000, 1.000000000000000000 ) ) ;
#69 = APPROVAL ( #182, 'NEURÈENÝ' ) ;
#70 = CIRCLE ( 'NONE', #60, 7.000000000000000000 ) ;
#71 = CALENDAR_DATE ( 2022, 7, 7 ) ;
#72 = SHAPE_DEFINITION_REPRESENTATION ( #208, #17 ) ;
#73 = DIRECTION ( 'NONE',  ( 0.000000000000000000, 0.000000000000000000, 1.000000000000000000 ) ) ;
#74 = ADVANCED_FACE ( 'NONE', ( #25 ), #238, .T. ) ;
#75 = CARTESIAN_POINT ( 'NONE',  ( 0.000000000000000000, 0.000000000000000000, 320.0000000000000000 ) ) ;
#76 = VERTEX_POINT ( 'NONE', #219 ) ;
#77 = EDGE_LOOP ( 'NONE', ( #231, #21 ) ) ;
#78 = VERTEX_POINT ( 'NONE', #120 ) ;
#79 = ORIENTED_EDGE ( 'NONE', *, *, #199, .T. ) ;
#80 = EDGE_CURVE ( 'NONE', #149, #194, #70, .T. ) ;
#81 = CARTESIAN_POINT ( 'NONE',  ( 0.000000000000000000, 0.000000000000000000, 5.000000000000000000 ) ) ;
#82 = AXIS2_PLACEMENT_3D ( 'NONE', #159, #4, #181 ) ;
#83 = DIRECTION ( 'NONE',  ( -0.000000000000000000, -0.000000000000000000, -1.000000000000000000 ) ) ;
#84 = ADVANCED_FACE ( 'NONE', ( #61, #63 ), #98, .T. ) ;
#85 = DIRECTION ( 'NONE',  ( 0.000000000000000000, 0.000000000000000000, 1.000000000000000000 ) ) ;
#86 = DATE_TIME_ROLE ( 'creation_date' ) ;
#87 = DIRECTION ( 'NONE',  ( 1.000000000000000000, 0.000000000000000000, 0.000000000000000000 ) ) ;
#88 = PERSON_AND_ORGANIZATION_ROLE ( 'creator' ) ;
#89 = PERSON_AND_ORGANIZATION ( #188, #192 ) ;
#90 = AXIS2_PLACEMENT_3D ( 'NONE', #221, #2, #45 ) ;
#91 = DIRECTION ( 'NONE',  ( 1.000000000000000000, 0.000000000000000000, 0.000000000000000000 ) ) ;
#92 = DIRECTION ( 'NONE',  ( -0.000000000000000000, -0.000000000000000000, -1.000000000000000000 ) ) ;
#93 = CIRCLE ( 'NONE', #110, 4.500000000000000000 ) ;
#94 = CARTESIAN_POINT ( 'NONE',  ( -4.500000000000000000, 0.000000000000000000, 320.0000000000000000 ) ) ;
#95 = EDGE_LOOP ( 'NONE', ( #237, #173 ) ) ;
#96 =( LENGTH_UNIT ( ) NAMED_UNIT ( * ) SI_UNIT ( .MILLI., .METRE. ) );
#97 = CARTESIAN_POINT ( 'NONE',  ( 0.000000000000000000, 0.000000000000000000, 0.000000000000000000 ) ) ;
#98 = PLANE ( 'NONE',  #225 ) ;
#99 = LOCAL_TIME ( 19, 28, 28.00000000000000000, #245 ) ;
#100 = CARTESIAN_POINT ( 'NONE',  ( -7.000000000000000000, 0.000000000000000000, 5.000000000000000000 ) ) ;
#101 = COORDINATED_UNIVERSAL_TIME_OFFSET ( 1, 0, .AHEAD. ) ;
#102 = DIRECTION ( 'NONE',  ( 0.000000000000000000, 0.000000000000000000, 1.000000000000000000 ) ) ;
#103 = CALENDAR_DATE ( 2022, 7, 7 ) ;
#104 = PERSON_AND_ORGANIZATION ( #188, #192 ) ;
#105 = AXIS2_PLACEMENT_3D ( 'NONE', #180, #198, #161 ) ;
#106 = CARTESIAN_POINT ( 'NONE',  ( 7.000000000000000000, 8.572527594031473190E-16, 0.000000000000000000 ) ) ;
#107 = CC_DESIGN_PERSON_AND_ORGANIZATION_ASSIGNMENT ( #30, #88, ( #202 ) ) ;
#108 = CC_DESIGN_SECURITY_CLASSIFICATION ( #8, ( #143 ) ) ;
#109 = FACE_OUTER_BOUND ( 'NONE', #77, .T. ) ;
#110 = AXIS2_PLACEMENT_3D ( 'NONE', #196, #216, #91 ) ;
#111 = EDGE_LOOP ( 'NONE', ( #233, #121 ) ) ;
#112 = VERTEX_POINT ( 'NONE', #222 ) ;
#113 = VERTEX_POINT ( 'NONE', #135 ) ;
#114 = LINE ( 'NONE', #13, #197 ) ;
#115 = EDGE_CURVE ( 'NONE', #76, #78, #36, .T. ) ;
#116 = CC_DESIGN_APPROVAL ( #206, ( #202 ) ) ;
#117 = CARTESIAN_POINT ( 'NONE',  ( 0.000000000000000000, 0.000000000000000000, 0.000000000000000000 ) ) ;
#118 = FACE_OUTER_BOUND ( 'NONE', #178, .T. ) ;
#119 = CLOSED_SHELL ( 'NONE', ( #185, #247, #74, #84, #251, #165, #236 ) ) ;
#120 = CARTESIAN_POINT ( 'NONE',  ( 7.000000000000000000, 8.572527594031473190E-16, 5.000000000000000000 ) ) ;
#121 = ORIENTED_EDGE ( 'NONE', *, *, #39, .T. ) ;
#122 = APPLICATION_PROTOCOL_DEFINITION ( 'international standard', 'config_control_design', 1994, #139 ) ;
#123 = DIRECTION ( 'NONE',  ( -0.000000000000000000, -0.000000000000000000, -1.000000000000000000 ) ) ;
#124 = EDGE_CURVE ( 'NONE', #112, #253, #151, .T. ) ;
#125 = PERSON_AND_ORGANIZATION_ROLE ( 'design_owner' ) ;
#126 = COORDINATED_UNIVERSAL_TIME_OFFSET ( 1, 0, .AHEAD. ) ;
#127 =( NAMED_UNIT ( * ) PLANE_ANGLE_UNIT ( ) SI_UNIT ( $, .RADIAN. ) );
#128 = AXIS2_PLACEMENT_3D ( 'NONE', #211, #20, #168 ) ;
#129 = CYLINDRICAL_SURFACE ( 'NONE', #128, 7.000000000000000000 ) ;
#130 = LOCAL_TIME ( 19, 28, 28.00000000000000000, #224 ) ;
#131 = APPLICATION_CONTEXT ( 'configuration controlled 3d designs of mechanical parts and assemblies' ) ;
#132 = ORIENTED_EDGE ( 'NONE', *, *, #124, .F. ) ;
#133 = ORIENTED_EDGE ( 'NONE', *, *, #115, .F. ) ;
#134 = PRODUCT_RELATED_PRODUCT_CATEGORY ( 'detail', '', ( #141 ) ) ;
#135 = CARTESIAN_POINT ( 'NONE',  ( 4.500000000000000000, 5.510910596163088569E-16, 320.0000000000000000 ) ) ;
#136 = CARTESIAN_POINT ( 'NONE',  ( 0.000000000000000000, 0.000000000000000000, 5.000000000000000000 ) ) ;
#137 = DIRECTION ( 'NONE',  ( -1.000000000000000000, 0.000000000000000000, 0.000000000000000000 ) ) ;
#138 = PERSON_AND_ORGANIZATION_ROLE ( 'classification_officer' ) ;
#139 = APPLICATION_CONTEXT ( 'configuration controlled 3d designs of mechanical parts and assemblies' ) ;
#140 = DATE_AND_TIME ( #67, #130 ) ;
#141 = PRODUCT ( '5bbb', '5bbb', '', ( #144 ) ) ;
#142 = VECTOR ( 'NONE', #83, 1000.000000000000000 ) ;
#143 = PRODUCT_DEFINITION_FORMATION_WITH_SPECIFIED_SOURCE ( 'LIBOVOLNÝ', '', #141, .NOT_KNOWN. ) ;
#144 = MECHANICAL_CONTEXT ( 'NONE', #131, 'mechanical' ) ;
#145 = APPROVAL_DATE_TIME ( #160, #206 ) ;
#146 = FACE_OUTER_BOUND ( 'NONE', #95, .T. ) ;
#147 = EDGE_CURVE ( 'NONE', #194, #149, #212, .T. ) ;
#148 = ORIENTED_EDGE ( 'NONE', *, *, #31, .F. ) ;
#149 = VERTEX_POINT ( 'NONE', #43 ) ;
#150 = CIRCLE ( 'NONE', #187, 4.500000000000000000 ) ;
#151 = CIRCLE ( 'NONE', #35, 4.500000000000000000 ) ;
#152 = VERTEX_POINT ( 'NONE', #22 ) ;
#153 = FACE_OUTER_BOUND ( 'NONE', #234, .T. ) ;
#154 = DIRECTION ( 'NONE',  ( 1.000000000000000000, 0.000000000000000000, -0.000000000000000000 ) ) ;
#155 = CC_DESIGN_PERSON_AND_ORGANIZATION_ASSIGNMENT ( #167, #138, ( #8 ) ) ;
#156 =( GEOMETRIC_REPRESENTATION_CONTEXT ( 3 ) GLOBAL_UNCERTAINTY_ASSIGNED_CONTEXT ( ( #205 ) ) GLOBAL_UNIT_ASSIGNED_CONTEXT ( ( #96, #127, #235 ) ) REPRESENTATION_CONTEXT ( 'NONE', 'WORKASPACE' ) );
#157 = DIRECTION ( 'NONE',  ( -0.000000000000000000, -0.000000000000000000, -1.000000000000000000 ) ) ;
#158 = LINE ( 'NONE', #241, #29 ) ;
#159 = CARTESIAN_POINT ( 'NONE',  ( 0.000000000000000000, 0.000000000000000000, 320.0000000000000000 ) ) ;
#160 = DATE_AND_TIME ( #207, #16 ) ;
#161 = DIRECTION ( 'NONE',  ( 1.000000000000000000, 0.000000000000000000, 0.000000000000000000 ) ) ;
#162 = EDGE_CURVE ( 'NONE', #253, #112, #150, .T. ) ;
#163 = PERSON_AND_ORGANIZATION_ROLE ( 'design_supplier' ) ;
#164 = APPROVAL_ROLE ( '' ) ;
#165 = ADVANCED_FACE ( 'NONE', ( #118 ), #200, .T. ) ;
#166 = LOCAL_TIME ( 19, 28, 28.00000000000000000, #7 ) ;
#167 = PERSON_AND_ORGANIZATION ( #188, #192 ) ;
#168 = DIRECTION ( 'NONE',  ( -1.000000000000000000, 0.000000000000000000, 0.000000000000000000 ) ) ;
#169 = FACE_OUTER_BOUND ( 'NONE', #213, .T. ) ;
#170 = CC_DESIGN_PERSON_AND_ORGANIZATION_ASSIGNMENT ( #9, #125, ( #141 ) ) ;
#171 = CIRCLE ( 'NONE', #82, 4.500000000000000000 ) ;
#172 = CC_DESIGN_APPROVAL ( #69, ( #143 ) ) ;
#173 = ORIENTED_EDGE ( 'NONE', *, *, #147, .F. ) ;
#174 = EDGE_CURVE ( 'NONE', #152, #112, #230, .T. ) ;
#175 = ORIENTED_EDGE ( 'NONE', *, *, #147, .T. ) ;
#176 = DIRECTION ( 'NONE',  ( 1.000000000000000000, 0.000000000000000000, -0.000000000000000000 ) ) ;
#177 = AXIS2_PLACEMENT_3D ( 'NONE', #75, #33, #154 ) ;
#178 = EDGE_LOOP ( 'NONE', ( #40, #57, #215, #195 ) ) ;
#179 = ORIENTED_EDGE ( 'NONE', *, *, #162, .T. ) ;
#180 = CARTESIAN_POINT ( 'NONE',  ( 0.000000000000000000, 0.000000000000000000, 5.000000000000000000 ) ) ;
#181 = DIRECTION ( 'NONE',  ( 1.000000000000000000, 0.000000000000000000, 0.000000000000000000 ) ) ;
#182 = APPROVAL_STATUS ( 'not_yet_approved' ) ;
#183 = DIRECTION ( 'NONE',  ( 1.000000000000000000, 0.000000000000000000, 0.000000000000000000 ) ) ;
#184 = APPROVAL_PERSON_ORGANIZATION ( #89, #206, #164 ) ;
#185 = ADVANCED_FACE ( 'NONE', ( #169 ), #248, .T. ) ;
#186 = APPROVAL_STATUS ( 'not_yet_approved' ) ;
#187 = AXIS2_PLACEMENT_3D ( 'NONE', #81, #220, #44 ) ;
#188 = PERSON ( 'NEURÈENÝ', 'NEURÈENÝ', 'NEURÈENÝ', ('NEURÈENÝ'), ('NEURÈENÝ'), ('NEURÈENÝ') ) ;
#189 = AXIS2_PLACEMENT_3D ( 'NONE', #244, #68, #28 ) ;
#190 = PLANE ( 'NONE',  #177 ) ;
#191 = CIRCLE ( 'NONE', #105, 7.000000000000000000 ) ;
#192 = ORGANIZATION ( 'NEURÈENÝ', 'NEURÈENÝ', '' ) ;
#193 = CC_DESIGN_PERSON_AND_ORGANIZATION_ASSIGNMENT ( #104, #163, ( #143 ) ) ;
#194 = VERTEX_POINT ( 'NONE', #106 ) ;
#195 = ORIENTED_EDGE ( 'NONE', *, *, #124, .T. ) ;
#196 = CARTESIAN_POINT ( 'NONE',  ( 0.000000000000000000, 0.000000000000000000, 320.0000000000000000 ) ) ;
#197 = VECTOR ( 'NONE', #54, 1000.000000000000000 ) ;
#198 = DIRECTION ( 'NONE',  ( 0.000000000000000000, 0.000000000000000000, 1.000000000000000000 ) ) ;
#199 = EDGE_CURVE ( 'NONE', #78, #194, #114, .T. ) ;
#200 = CYLINDRICAL_SURFACE ( 'NONE', #53, 4.500000000000000000 ) ;
#201 = CARTESIAN_POINT ( 'NONE',  ( 0.000000000000000000, 0.000000000000000000, 5.000000000000000000 ) ) ;
#202 = PRODUCT_DEFINITION ( 'NEZNÁMÝ', '', #143, #232 ) ;
#203 = LINE ( 'NONE', #100, #142 ) ;
#204 = PERSON_AND_ORGANIZATION ( #188, #192 ) ;
#205 = UNCERTAINTY_MEASURE_WITH_UNIT (LENGTH_MEASURE( 1.000000000000000082E-05 ), #96, 'distance_accuracy_value', 'NONE');
#206 = APPROVAL ( #186, 'NEURÈENÝ' ) ;
#207 = CALENDAR_DATE ( 2022, 7, 7 ) ;
#208 = PRODUCT_DEFINITION_SHAPE ( 'NONE', 'NONE',  #202 ) ;
#209 = APPROVAL_ROLE ( '' ) ;
#210 = CARTESIAN_POINT ( 'NONE',  ( 0.000000000000000000, 0.000000000000000000, 0.000000000000000000 ) ) ;
#211 = CARTESIAN_POINT ( 'NONE',  ( 0.000000000000000000, 0.000000000000000000, 5.000000000000000000 ) ) ;
#212 = CIRCLE ( 'NONE', #10, 7.000000000000000000 ) ;
#213 = EDGE_LOOP ( 'NONE', ( #18, #217, #179, #1 ) ) ;
#214 = VECTOR ( 'NONE', #92, 1000.000000000000000 ) ;
#215 = ORIENTED_EDGE ( 'NONE', *, *, #174, .T. ) ;
#216 = DIRECTION ( 'NONE',  ( 0.000000000000000000, 0.000000000000000000, 1.000000000000000000 ) ) ;
#217 = ORIENTED_EDGE ( 'NONE', *, *, #42, .T. ) ;
#218 = EDGE_CURVE ( 'NONE', #113, #152, #93, .T. ) ;
#219 = CARTESIAN_POINT ( 'NONE',  ( -7.000000000000000000, 0.000000000000000000, 5.000000000000000000 ) ) ;
#220 = DIRECTION ( 'NONE',  ( 0.000000000000000000, 0.000000000000000000, 1.000000000000000000 ) ) ;
#221 = CARTESIAN_POINT ( 'NONE',  ( 0.000000000000000000, 0.000000000000000000, 5.000000000000000000 ) ) ;
#222 = CARTESIAN_POINT ( 'NONE',  ( -4.500000000000000000, 0.000000000000000000, 5.000000000000000000 ) ) ;
#223 = APPROVAL_DATE_TIME ( #226, #69 ) ;
#224 = COORDINATED_UNIVERSAL_TIME_OFFSET ( 1, 0, .AHEAD. ) ;
#225 = AXIS2_PLACEMENT_3D ( 'NONE', #136, #46, #26 ) ;
#226 = DATE_AND_TIME ( #71, #99 ) ;
#227 = CALENDAR_DATE ( 2022, 7, 7 ) ;
#228 = CC_DESIGN_PERSON_AND_ORGANIZATION_ASSIGNMENT ( #243, #32, ( #143 ) ) ;
#229 = CARTESIAN_POINT ( 'NONE',  ( 4.500000000000000000, 5.510910596163088569E-16, 5.000000000000000000 ) ) ;
#230 = LINE ( 'NONE', #94, #214 ) ;
#231 = ORIENTED_EDGE ( 'NONE', *, *, #47, .T. ) ;
#232 = DESIGN_CONTEXT ( 'detailed design', #139, 'design' ) ;
#233 = ORIENTED_EDGE ( 'NONE', *, *, #115, .T. ) ;
#234 = EDGE_LOOP ( 'NONE', ( #252, #79, #175, #148 ) ) ;
#235 =( NAMED_UNIT ( * ) SI_UNIT ( $, .STERADIAN. ) SOLID_ANGLE_UNIT ( ) );
#236 = ADVANCED_FACE ( 'NONE', ( #109 ), #190, .T. ) ;
#237 = ORIENTED_EDGE ( 'NONE', *, *, #80, .F. ) ;
#238 = CYLINDRICAL_SURFACE ( 'NONE', #3, 7.000000000000000000 ) ;
#239 = CC_DESIGN_DATE_AND_TIME_ASSIGNMENT ( #242, #86, ( #202 ) ) ;
#240 = CARTESIAN_POINT ( 'NONE',  ( 0.000000000000000000, 0.000000000000000000, 5.000000000000000000 ) ) ;
#241 = CARTESIAN_POINT ( 'NONE',  ( 4.500000000000000000, 5.510910596163088569E-16, 320.0000000000000000 ) ) ;
#242 = DATE_AND_TIME ( #227, #166 ) ;
#243 = PERSON_AND_ORGANIZATION ( #188, #192 ) ;
#244 = CARTESIAN_POINT ( 'NONE',  ( 0.000000000000000000, 0.000000000000000000, 0.000000000000000000 ) ) ;
#245 = COORDINATED_UNIVERSAL_TIME_OFFSET ( 1, 0, .AHEAD. ) ;
#246 = APPROVAL_PERSON_ORGANIZATION ( #204, #34, #209 ) ;
#247 = ADVANCED_FACE ( 'NONE', ( #153 ), #129, .T. ) ;
#248 = CYLINDRICAL_SURFACE ( 'NONE', #250, 4.500000000000000000 ) ;
#249 = CARTESIAN_POINT ( 'NONE',  ( 0.000000000000000000, 0.000000000000000000, 320.0000000000000000 ) ) ;
#250 = AXIS2_PLACEMENT_3D ( 'NONE', #249, #14, #41 ) ;
#251 = ADVANCED_FACE ( 'NONE', ( #146 ), #19, .F. ) ;
#252 = ORIENTED_EDGE ( 'NONE', *, *, #39, .F. ) ;
#253 = VERTEX_POINT ( 'NONE', #229 ) ;
#254 = ORIENTED_EDGE ( 'NONE', *, *, #162, .F. ) ;
#255 = LOCAL_TIME ( 19, 28, 28.00000000000000000, #101 ) ;
ENDSEC;
END-ISO-10303-21;
