ISO-10303-21;
HEADER;
FILE_DESCRIPTION (( 'STEP AP203' ),
    '1' );
FILE_NAME ('d322.STEP',
    '2022-07-07T17:19:37',
    ( '' ),
    ( '' ),
    'SwSTEP 2.0',
    'SolidWorks 2019',
    '' );
FILE_SCHEMA (( 'CONFIG_CONTROL_DESIGN' ));
ENDSEC;

DATA;
#1 = PLANE ( 'NONE',  #220 ) ;
#2 = EDGE_CURVE ( 'NONE', #195, #96, #7, .T. ) ;
#3 = FACE_OUTER_BOUND ( 'NONE', #215, .T. ) ;
#4 = ORIENTED_EDGE ( 'NONE', *, *, #168, .T. ) ;
#5 = ORIENTED_EDGE ( 'NONE', *, *, #2, .F. ) ;
#6 = VERTEX_POINT ( 'NONE', #140 ) ;
#7 = CIRCLE ( 'NONE', #123, 6.000000000000000888 ) ;
#8 = CIRCLE ( 'NONE', #67, 9.000000000000000000 ) ;
#9 = LOCAL_TIME ( 19, 19, 37.00000000000000000, #187 ) ;
#10 = CARTESIAN_POINT ( 'NONE',  ( 0.000000000000000000, 0.000000000000000000, 0.000000000000000000 ) ) ;
#11 = CARTESIAN_POINT ( 'NONE',  ( 6.000000000000000888, 7.347880794884120722E-16, 7.000000000000000000 ) ) ;
#12 = CYLINDRICAL_SURFACE ( 'NONE', #64, 9.000000000000000000 ) ;
#13 = CARTESIAN_POINT ( 'NONE',  ( -9.000000000000000000, 0.000000000000000000, 7.000000000000000000 ) ) ;
#14 = CALENDAR_DATE ( 2022, 7, 7 ) ;
#15 = PERSON_AND_ORGANIZATION_ROLE ( 'classification_officer' ) ;
#16 = DIRECTION ( 'NONE',  ( 0.000000000000000000, 0.000000000000000000, 1.000000000000000000 ) ) ;
#17 = EDGE_LOOP ( 'NONE', ( #120, #197, #4, #43 ) ) ;
#18 = EDGE_LOOP ( 'NONE', ( #193, #138, #192, #117 ) ) ;
#19 = AXIS2_PLACEMENT_3D ( 'NONE', #125, #148, #73 ) ;
#20 = PRODUCT_DEFINITION_SHAPE ( 'NONE', 'NONE',  #202 ) ;
#21 = LOCAL_TIME ( 19, 19, 37.00000000000000000, #74 ) ;
#22 = AXIS2_PLACEMENT_3D ( 'NONE', #27, #29, #108 ) ;
#23 = APPROVAL_PERSON_ORGANIZATION ( #147, #121, #71 ) ;
#24 = CIRCLE ( 'NONE', #239, 9.000000000000000000 ) ;
#25 = APPROVAL ( #34, 'NEURÈENÝ' ) ;
#26 = FACE_OUTER_BOUND ( 'NONE', #18, .T. ) ;
#27 = CARTESIAN_POINT ( 'NONE',  ( 0.000000000000000000, 0.000000000000000000, 322.0000000000000000 ) ) ;
#28 = SHAPE_DEFINITION_REPRESENTATION ( #20, #246 ) ;
#29 = DIRECTION ( 'NONE',  ( -0.000000000000000000, -0.000000000000000000, -1.000000000000000000 ) ) ;
#30 = DIRECTION ( 'NONE',  ( -1.000000000000000000, 0.000000000000000000, 0.000000000000000000 ) ) ;
#31 = DATE_AND_TIME ( #225, #221 ) ;
#32 = AXIS2_PLACEMENT_3D ( 'NONE', #46, #165, #143 ) ;
#33 = SECURITY_CLASSIFICATION ( '', '', #92 ) ;
#34 = APPROVAL_STATUS ( 'not_yet_approved' ) ;
#35 = ADVANCED_FACE ( 'NONE', ( #213 ), #1, .F. ) ;
#36 = ORIENTED_EDGE ( 'NONE', *, *, #134, .F. ) ;
#37 = VERTEX_POINT ( 'NONE', #90 ) ;
#38 = PERSON_AND_ORGANIZATION_ROLE ( 'design_owner' ) ;
#39 = VERTEX_POINT ( 'NONE', #13 ) ;
#40 = DIRECTION ( 'NONE',  ( -1.000000000000000000, 0.000000000000000000, 0.000000000000000000 ) ) ;
#41 = LOCAL_TIME ( 19, 19, 37.00000000000000000, #232 ) ;
#42 = DIRECTION ( 'NONE',  ( 1.000000000000000000, 0.000000000000000000, 0.000000000000000000 ) ) ;
#43 = ORIENTED_EDGE ( 'NONE', *, *, #62, .T. ) ;
#44 = CC_DESIGN_APPROVAL ( #25, ( #202 ) ) ;
#45 = CC_DESIGN_PERSON_AND_ORGANIZATION_ASSIGNMENT ( #150, #15, ( #33 ) ) ;
#46 = CARTESIAN_POINT ( 'NONE',  ( 0.000000000000000000, 0.000000000000000000, 322.0000000000000000 ) ) ;
#47 = LINE ( 'NONE', #200, #63 ) ;
#48 = LINE ( 'NONE', #184, #159 ) ;
#49 = DIRECTION ( 'NONE',  ( -0.000000000000000000, -0.000000000000000000, -1.000000000000000000 ) ) ;
#50 = APPROVAL_DATE_TIME ( #31, #89 ) ;
#51 = DIRECTION ( 'NONE',  ( 0.000000000000000000, 0.000000000000000000, 1.000000000000000000 ) ) ;
#52 = CALENDAR_DATE ( 2022, 7, 7 ) ;
#53 = PERSON_AND_ORGANIZATION ( #211, #244 ) ;
#54 = ORIENTED_EDGE ( 'NONE', *, *, #224, .F. ) ;
#55 = CARTESIAN_POINT ( 'NONE',  ( 0.000000000000000000, 0.000000000000000000, 322.0000000000000000 ) ) ;
#56 = DIRECTION ( 'NONE',  ( 1.000000000000000000, 0.000000000000000000, -0.000000000000000000 ) ) ;
#57 = CARTESIAN_POINT ( 'NONE',  ( 0.000000000000000000, 0.000000000000000000, 7.000000000000000000 ) ) ;
#58 = UNCERTAINTY_MEASURE_WITH_UNIT (LENGTH_MEASURE( 1.000000000000000082E-05 ), #233, 'distance_accuracy_value', 'NONE');
#59 =( NAMED_UNIT ( * ) SI_UNIT ( $, .STERADIAN. ) SOLID_ANGLE_UNIT ( ) );
#60 = VERTEX_POINT ( 'NONE', #223 ) ;
#61 = CARTESIAN_POINT ( 'NONE',  ( 0.000000000000000000, 0.000000000000000000, 322.0000000000000000 ) ) ;
#62 = EDGE_CURVE ( 'NONE', #135, #37, #24, .T. ) ;
#63 = VECTOR ( 'NONE', #103, 1000.000000000000000 ) ;
#64 = AXIS2_PLACEMENT_3D ( 'NONE', #128, #231, #30 ) ;
#65 = CC_DESIGN_DATE_AND_TIME_ASSIGNMENT ( #109, #248, ( #33 ) ) ;
#66 = CIRCLE ( 'NONE', #152, 6.000000000000000888 ) ;
#67 = AXIS2_PLACEMENT_3D ( 'NONE', #208, #51, #180 ) ;
#68 = DIRECTION ( 'NONE',  ( 0.000000000000000000, 0.000000000000000000, 1.000000000000000000 ) ) ;
#69 = APPROVAL_STATUS ( 'not_yet_approved' ) ;
#70 = DIRECTION ( 'NONE',  ( 0.000000000000000000, 0.000000000000000000, 1.000000000000000000 ) ) ;
#71 = APPROVAL_ROLE ( '' ) ;
#72 = PRODUCT_DEFINITION_FORMATION_WITH_SPECIFIED_SOURCE ( 'LIBOVOLNÝ', '', #188, .NOT_KNOWN. ) ;
#73 = DIRECTION ( 'NONE',  ( 1.000000000000000000, 0.000000000000000000, 0.000000000000000000 ) ) ;
#74 = COORDINATED_UNIVERSAL_TIME_OFFSET ( 1, 0, .AHEAD. ) ;
#75 = ADVANCED_FACE ( 'NONE', ( #210 ), #130, .T. ) ;
#76 = CARTESIAN_POINT ( 'NONE',  ( -9.000000000000000000, 0.000000000000000000, 0.000000000000000000 ) ) ;
#77 = PERSON_AND_ORGANIZATION ( #211, #244 ) ;
#78 = PERSON_AND_ORGANIZATION ( #211, #244 ) ;
#79 = CARTESIAN_POINT ( 'NONE',  ( 0.000000000000000000, 0.000000000000000000, 0.000000000000000000 ) ) ;
#80 = APPROVAL_PERSON_ORGANIZATION ( #78, #89, #104 ) ;
#81 = EDGE_LOOP ( 'NONE', ( #36, #158 ) ) ;
#82 = MECHANICAL_CONTEXT ( 'NONE', #175, 'mechanical' ) ;
#83 = ORIENTED_EDGE ( 'NONE', *, *, #62, .F. ) ;
#84 = ORIENTED_EDGE ( 'NONE', *, *, #190, .F. ) ;
#85 = VECTOR ( 'NONE', #251, 1000.000000000000000 ) ;
#86 = CARTESIAN_POINT ( 'NONE',  ( 6.000000000000000888, 7.347880794884120722E-16, 322.0000000000000000 ) ) ;
#87 = FACE_OUTER_BOUND ( 'NONE', #153, .T. ) ;
#88 = CARTESIAN_POINT ( 'NONE',  ( 0.000000000000000000, 0.000000000000000000, 7.000000000000000000 ) ) ;
#89 = APPROVAL ( #69, 'NEURÈENÝ' ) ;
#90 = CARTESIAN_POINT ( 'NONE',  ( 9.000000000000000000, 1.102182119232617714E-15, 0.000000000000000000 ) ) ;
#91 = DATE_AND_TIME ( #14, #9 ) ;
#92 = SECURITY_CLASSIFICATION_LEVEL ( 'unclassified' ) ;
#93 = CARTESIAN_POINT ( 'NONE',  ( 0.000000000000000000, 0.000000000000000000, 0.000000000000000000 ) ) ;
#94 = ORIENTED_EDGE ( 'NONE', *, *, #198, .T. ) ;
#95 = DIRECTION ( 'NONE',  ( 0.000000000000000000, 0.000000000000000000, 1.000000000000000000 ) ) ;
#96 = VERTEX_POINT ( 'NONE', #144 ) ;
#97 = APPROVAL_ROLE ( '' ) ;
#98 = VECTOR ( 'NONE', #186, 1000.000000000000000 ) ;
#99 = PRODUCT_RELATED_PRODUCT_CATEGORY ( 'detail', '', ( #188 ) ) ;
#100 =( GEOMETRIC_REPRESENTATION_CONTEXT ( 3 ) GLOBAL_UNCERTAINTY_ASSIGNED_CONTEXT ( ( #58 ) ) GLOBAL_UNIT_ASSIGNED_CONTEXT ( ( #233, #114, #59 ) ) REPRESENTATION_CONTEXT ( 'NONE', 'WORKASPACE' ) );
#101 = CLOSED_SHELL ( 'NONE', ( #75, #174, #199, #241, #35, #122, #228 ) ) ;
#102 = EDGE_CURVE ( 'NONE', #6, #39, #173, .T. ) ;
#103 = DIRECTION ( 'NONE',  ( -0.000000000000000000, -0.000000000000000000, -1.000000000000000000 ) ) ;
#104 = APPROVAL_ROLE ( '' ) ;
#105 = DIRECTION ( 'NONE',  ( 0.000000000000000000, 0.000000000000000000, 1.000000000000000000 ) ) ;
#106 = DIRECTION ( 'NONE',  ( -0.000000000000000000, -0.000000000000000000, -1.000000000000000000 ) ) ;
#107 = CC_DESIGN_PERSON_AND_ORGANIZATION_ASSIGNMENT ( #252, #205, ( #72 ) ) ;
#108 = DIRECTION ( 'NONE',  ( -1.000000000000000000, 0.000000000000000000, 0.000000000000000000 ) ) ;
#109 = DATE_AND_TIME ( #183, #21 ) ;
#110 = AXIS2_PLACEMENT_3D ( 'NONE', #57, #116, #212 ) ;
#111 = CC_DESIGN_APPROVAL ( #121, ( #33 ) ) ;
#112 = PLANE ( 'NONE',  #145 ) ;
#113 = ORIENTED_EDGE ( 'NONE', *, *, #178, .T. ) ;
#114 =( NAMED_UNIT ( * ) PLANE_ANGLE_UNIT ( ) SI_UNIT ( $, .RADIAN. ) );
#115 = ORIENTED_EDGE ( 'NONE', *, *, #156, .T. ) ;
#116 = DIRECTION ( 'NONE',  ( 0.000000000000000000, 0.000000000000000000, 1.000000000000000000 ) ) ;
#117 = ORIENTED_EDGE ( 'NONE', *, *, #168, .F. ) ;
#118 = DESIGN_CONTEXT ( 'detailed design', #201, 'design' ) ;
#119 = DIRECTION ( 'NONE',  ( 1.000000000000000000, 0.000000000000000000, -0.000000000000000000 ) ) ;
#120 = ORIENTED_EDGE ( 'NONE', *, *, #160, .F. ) ;
#121 = APPROVAL ( #230, 'NEURÈENÝ' ) ;
#122 = ADVANCED_FACE ( 'NONE', ( #87 ), #206, .T. ) ;
#123 = AXIS2_PLACEMENT_3D ( 'NONE', #61, #238, #42 ) ;
#124 = CARTESIAN_POINT ( 'NONE',  ( 0.000000000000000000, 0.000000000000000000, 7.000000000000000000 ) ) ;
#125 = CARTESIAN_POINT ( 'NONE',  ( 0.000000000000000000, 0.000000000000000000, 7.000000000000000000 ) ) ;
#126 = AXIS2_PLACEMENT_3D ( 'NONE', #166, #136, #214 ) ;
#127 = FACE_OUTER_BOUND ( 'NONE', #17, .T. ) ;
#128 = CARTESIAN_POINT ( 'NONE',  ( 0.000000000000000000, 0.000000000000000000, 7.000000000000000000 ) ) ;
#129 = COORDINATED_UNIVERSAL_TIME_OFFSET ( 1, 0, .AHEAD. ) ;
#130 = CYLINDRICAL_SURFACE ( 'NONE', #32, 6.000000000000000888 ) ;
#131 = DATE_AND_TIME ( #52, #41 ) ;
#132 = EDGE_LOOP ( 'NONE', ( #83, #54 ) ) ;
#133 = LOCAL_TIME ( 19, 19, 37.00000000000000000, #129 ) ;
#134 = EDGE_CURVE ( 'NONE', #60, #157, #66, .T. ) ;
#135 = VERTEX_POINT ( 'NONE', #76 ) ;
#136 = DIRECTION ( 'NONE',  ( 0.000000000000000000, 0.000000000000000000, 1.000000000000000000 ) ) ;
#137 = ORIENTED_EDGE ( 'NONE', *, *, #190, .T. ) ;
#138 = ORIENTED_EDGE ( 'NONE', *, *, #160, .T. ) ;
#139 = CC_DESIGN_PERSON_AND_ORGANIZATION_ASSIGNMENT ( #77, #149, ( #202 ) ) ;
#140 = CARTESIAN_POINT ( 'NONE',  ( 9.000000000000000000, 1.102182119232617714E-15, 7.000000000000000000 ) ) ;
#141 = AXIS2_PLACEMENT_3D ( 'NONE', #124, #253, #163 ) ;
#142 = CC_DESIGN_PERSON_AND_ORGANIZATION_ASSIGNMENT ( #53, #255, ( #72 ) ) ;
#143 = DIRECTION ( 'NONE',  ( -1.000000000000000000, 0.000000000000000000, 0.000000000000000000 ) ) ;
#144 = CARTESIAN_POINT ( 'NONE',  ( 6.000000000000000888, 7.347880794884120722E-16, 322.0000000000000000 ) ) ;
#145 = AXIS2_PLACEMENT_3D ( 'NONE', #55, #16, #119 ) ;
#146 = CYLINDRICAL_SURFACE ( 'NONE', #250, 9.000000000000000000 ) ;
#147 = PERSON_AND_ORGANIZATION ( #211, #244 ) ;
#148 = DIRECTION ( 'NONE',  ( 0.000000000000000000, 0.000000000000000000, 1.000000000000000000 ) ) ;
#149 = PERSON_AND_ORGANIZATION_ROLE ( 'creator' ) ;
#150 = PERSON_AND_ORGANIZATION ( #211, #244 ) ;
#151 = APPLICATION_PROTOCOL_DEFINITION ( 'international standard', 'config_control_design', 1994, #175 ) ;
#152 = AXIS2_PLACEMENT_3D ( 'NONE', #88, #105, #227 ) ;
#153 = EDGE_LOOP ( 'NONE', ( #84, #5, #115, #219 ) ) ;
#154 = EDGE_LOOP ( 'NONE', ( #217, #94 ) ) ;
#155 = PERSON_AND_ORGANIZATION ( #211, #244 ) ;
#156 = EDGE_CURVE ( 'NONE', #195, #60, #203, .T. ) ;
#157 = VERTEX_POINT ( 'NONE', #11 ) ;
#158 = ORIENTED_EDGE ( 'NONE', *, *, #161, .F. ) ;
#159 = VECTOR ( 'NONE', #106, 1000.000000000000000 ) ;
#160 = EDGE_CURVE ( 'NONE', #6, #37, #47, .T. ) ;
#161 = EDGE_CURVE ( 'NONE', #157, #60, #242, .T. ) ;
#162 = CARTESIAN_POINT ( 'NONE',  ( 0.000000000000000000, 0.000000000000000000, 322.0000000000000000 ) ) ;
#163 = DIRECTION ( 'NONE',  ( 1.000000000000000000, 0.000000000000000000, 0.000000000000000000 ) ) ;
#164 = LINE ( 'NONE', #86, #85 ) ;
#165 = DIRECTION ( 'NONE',  ( -0.000000000000000000, -0.000000000000000000, -1.000000000000000000 ) ) ;
#166 = CARTESIAN_POINT ( 'NONE',  ( 0.000000000000000000, 0.000000000000000000, 0.000000000000000000 ) ) ;
#167 = DATE_AND_TIME ( #207, #133 ) ;
#168 = EDGE_CURVE ( 'NONE', #39, #135, #48, .T. ) ;
#169 = APPLICATION_PROTOCOL_DEFINITION ( 'international standard', 'config_control_design', 1994, #201 ) ;
#170 = ORIENTED_EDGE ( 'NONE', *, *, #102, .T. ) ;
#171 = ORIENTED_EDGE ( 'NONE', *, *, #156, .F. ) ;
#172 = ORIENTED_EDGE ( 'NONE', *, *, #198, .F. ) ;
#173 = CIRCLE ( 'NONE', #141, 9.000000000000000000 ) ;
#174 = ADVANCED_FACE ( 'NONE', ( #26 ), #12, .T. ) ;
#175 = APPLICATION_CONTEXT ( 'configuration controlled 3d designs of mechanical parts and assemblies' ) ;
#176 = AXIS2_PLACEMENT_3D ( 'NONE', #162, #68, #247 ) ;
#177 = CIRCLE ( 'NONE', #126, 9.000000000000000000 ) ;
#178 = EDGE_CURVE ( 'NONE', #39, #6, #8, .T. ) ;
#179 = APPROVAL_PERSON_ORGANIZATION ( #237, #25, #97 ) ;
#180 = DIRECTION ( 'NONE',  ( 1.000000000000000000, 0.000000000000000000, 0.000000000000000000 ) ) ;
#181 = CC_DESIGN_SECURITY_CLASSIFICATION ( #33, ( #72 ) ) ;
#182 = CARTESIAN_POINT ( 'NONE',  ( -6.000000000000000888, 0.000000000000000000, 322.0000000000000000 ) ) ;
#183 = CALENDAR_DATE ( 2022, 7, 7 ) ;
#184 = CARTESIAN_POINT ( 'NONE',  ( -9.000000000000000000, 0.000000000000000000, 7.000000000000000000 ) ) ;
#185 = COORDINATED_UNIVERSAL_TIME_OFFSET ( 1, 0, .AHEAD. ) ;
#186 = DIRECTION ( 'NONE',  ( -0.000000000000000000, -0.000000000000000000, -1.000000000000000000 ) ) ;
#187 = COORDINATED_UNIVERSAL_TIME_OFFSET ( 1, 0, .AHEAD. ) ;
#188 = PRODUCT ( 'd322', 'd322', '', ( #82 ) ) ;
#189 = CC_DESIGN_PERSON_AND_ORGANIZATION_ASSIGNMENT ( #155, #38, ( #188 ) ) ;
#190 = EDGE_CURVE ( 'NONE', #96, #157, #164, .T. ) ;
#191 = DATE_TIME_ROLE ( 'creation_date' ) ;
#192 = ORIENTED_EDGE ( 'NONE', *, *, #224, .T. ) ;
#193 = ORIENTED_EDGE ( 'NONE', *, *, #102, .F. ) ;
#194 = PLANE ( 'NONE',  #110 ) ;
#195 = VERTEX_POINT ( 'NONE', #249 ) ;
#196 = FACE_OUTER_BOUND ( 'NONE', #154, .T. ) ;
#197 = ORIENTED_EDGE ( 'NONE', *, *, #178, .F. ) ;
#198 = EDGE_CURVE ( 'NONE', #96, #195, #222, .T. ) ;
#199 = ADVANCED_FACE ( 'NONE', ( #127 ), #146, .T. ) ;
#200 = CARTESIAN_POINT ( 'NONE',  ( 9.000000000000000000, 1.102182119232617714E-15, 7.000000000000000000 ) ) ;
#201 = APPLICATION_CONTEXT ( 'configuration controlled 3d designs of mechanical parts and assemblies' ) ;
#202 = PRODUCT_DEFINITION ( 'NEZNÁMÝ', '', #72, #118 ) ;
#203 = LINE ( 'NONE', #182, #98 ) ;
#204 = MANIFOLD_SOLID_BREP ( 'Pøidat vysunutím3', #101 ) ;
#205 = PERSON_AND_ORGANIZATION_ROLE ( 'design_supplier' ) ;
#206 = CYLINDRICAL_SURFACE ( 'NONE', #22, 6.000000000000000888 ) ;
#207 = CALENDAR_DATE ( 2022, 7, 7 ) ;
#208 = CARTESIAN_POINT ( 'NONE',  ( 0.000000000000000000, 0.000000000000000000, 7.000000000000000000 ) ) ;
#209 = APPROVAL_DATE_TIME ( #167, #121 ) ;
#210 = FACE_OUTER_BOUND ( 'NONE', #240, .T. ) ;
#211 = PERSON ( 'NEURÈENÝ', 'NEURÈENÝ', 'NEURÈENÝ', ('NEURÈENÝ'), ('NEURÈENÝ'), ('NEURÈENÝ') ) ;
#212 = DIRECTION ( 'NONE',  ( 1.000000000000000000, 0.000000000000000000, -0.000000000000000000 ) ) ;
#213 = FACE_OUTER_BOUND ( 'NONE', #132, .T. ) ;
#214 = DIRECTION ( 'NONE',  ( 1.000000000000000000, 0.000000000000000000, 0.000000000000000000 ) ) ;
#215 = EDGE_LOOP ( 'NONE', ( #113, #170 ) ) ;
#216 = DIRECTION ( 'NONE',  ( 1.000000000000000000, 0.000000000000000000, 0.000000000000000000 ) ) ;
#217 = ORIENTED_EDGE ( 'NONE', *, *, #2, .T. ) ;
#218 = FACE_BOUND ( 'NONE', #81, .T. ) ;
#219 = ORIENTED_EDGE ( 'NONE', *, *, #134, .T. ) ;
#220 = AXIS2_PLACEMENT_3D ( 'NONE', #79, #235, #56 ) ;
#221 = LOCAL_TIME ( 19, 19, 37.00000000000000000, #185 ) ;
#222 = CIRCLE ( 'NONE', #176, 6.000000000000000888 ) ;
#223 = CARTESIAN_POINT ( 'NONE',  ( -6.000000000000000888, 0.000000000000000000, 7.000000000000000000 ) ) ;
#224 = EDGE_CURVE ( 'NONE', #37, #135, #177, .T. ) ;
#225 = CALENDAR_DATE ( 2022, 7, 7 ) ;
#226 = DIRECTION ( 'NONE',  ( 1.000000000000000000, 0.000000000000000000, 0.000000000000000000 ) ) ;
#227 = DIRECTION ( 'NONE',  ( 1.000000000000000000, 0.000000000000000000, 0.000000000000000000 ) ) ;
#228 = ADVANCED_FACE ( 'NONE', ( #196 ), #112, .T. ) ;
#229 = CARTESIAN_POINT ( 'NONE',  ( 0.000000000000000000, 0.000000000000000000, 7.000000000000000000 ) ) ;
#230 = APPROVAL_STATUS ( 'not_yet_approved' ) ;
#231 = DIRECTION ( 'NONE',  ( -0.000000000000000000, -0.000000000000000000, -1.000000000000000000 ) ) ;
#232 = COORDINATED_UNIVERSAL_TIME_OFFSET ( 1, 0, .AHEAD. ) ;
#233 =( LENGTH_UNIT ( ) NAMED_UNIT ( * ) SI_UNIT ( .MILLI., .METRE. ) );
#234 = AXIS2_PLACEMENT_3D ( 'NONE', #93, #95, #216 ) ;
#235 = DIRECTION ( 'NONE',  ( 0.000000000000000000, 0.000000000000000000, 1.000000000000000000 ) ) ;
#236 = ORIENTED_EDGE ( 'NONE', *, *, #161, .T. ) ;
#237 = PERSON_AND_ORGANIZATION ( #211, #244 ) ;
#238 = DIRECTION ( 'NONE',  ( 0.000000000000000000, 0.000000000000000000, 1.000000000000000000 ) ) ;
#239 = AXIS2_PLACEMENT_3D ( 'NONE', #10, #70, #226 ) ;
#240 = EDGE_LOOP ( 'NONE', ( #172, #137, #236, #171 ) ) ;
#241 = ADVANCED_FACE ( 'NONE', ( #218, #3 ), #194, .T. ) ;
#242 = CIRCLE ( 'NONE', #19, 6.000000000000000888 ) ;
#243 = CC_DESIGN_DATE_AND_TIME_ASSIGNMENT ( #131, #191, ( #202 ) ) ;
#244 = ORGANIZATION ( 'NEURÈENÝ', 'NEURÈENÝ', '' ) ;
#245 = CC_DESIGN_APPROVAL ( #89, ( #72 ) ) ;
#246 = ADVANCED_BREP_SHAPE_REPRESENTATION ( 'd322', ( #204, #234 ), #100 ) ;
#247 = DIRECTION ( 'NONE',  ( 1.000000000000000000, 0.000000000000000000, 0.000000000000000000 ) ) ;
#248 = DATE_TIME_ROLE ( 'classification_date' ) ;
#249 = CARTESIAN_POINT ( 'NONE',  ( -6.000000000000000888, 0.000000000000000000, 322.0000000000000000 ) ) ;
#250 = AXIS2_PLACEMENT_3D ( 'NONE', #229, #49, #40 ) ;
#251 = DIRECTION ( 'NONE',  ( -0.000000000000000000, -0.000000000000000000, -1.000000000000000000 ) ) ;
#252 = PERSON_AND_ORGANIZATION ( #211, #244 ) ;
#253 = DIRECTION ( 'NONE',  ( 0.000000000000000000, 0.000000000000000000, 1.000000000000000000 ) ) ;
#254 = APPROVAL_DATE_TIME ( #91, #25 ) ;
#255 = PERSON_AND_ORGANIZATION_ROLE ( 'creator' ) ;
ENDSEC;
END-ISO-10303-21;
