ISO-10303-21;
HEADER;
FILE_DESCRIPTION (( 'STEP AP203' ),
    '1' );
FILE_NAME ('0840.STEP',
    '2022-07-07T17:58:24',
    ( '' ),
    ( '' ),
    'SwSTEP 2.0',
    'SolidWorks 2019',
    '' );
FILE_SCHEMA (( 'CONFIG_CONTROL_DESIGN' ));
ENDSEC;

DATA;
#1 = CARTESIAN_POINT ( 'NONE',  ( 1.250000000000000000, 1.530808498934191571E-16, 162.0000000000000000 ) ) ;
#2 = CARTESIAN_POINT ( 'NONE',  ( 0.000000000000000000, 0.000000000000000000, 162.0000000000000000 ) ) ;
#3 = EDGE_CURVE ( 'NONE', #167, #188, #241, .T. ) ;
#4 = CARTESIAN_POINT ( 'NONE',  ( 0.000000000000000000, 0.000000000000000000, 162.0000000000000000 ) ) ;
#5 = DIRECTION ( 'NONE',  ( -0.000000000000000000, -0.000000000000000000, -1.000000000000000000 ) ) ;
#6 = PLANE ( 'NONE',  #129 ) ;
#7 = EDGE_LOOP ( 'NONE', ( #29, #224 ) ) ;
#8 = VECTOR ( 'NONE', #30, 1000.000000000000000 ) ;
#9 = CARTESIAN_POINT ( 'NONE',  ( -1.250000000000000000, 0.000000000000000000, 162.0000000000000000 ) ) ;
#10 = DIRECTION ( 'NONE',  ( 1.000000000000000000, 0.000000000000000000, 0.000000000000000000 ) ) ;
#11 = APPROVAL_STATUS ( 'not_yet_approved' ) ;
#12 = CARTESIAN_POINT ( 'NONE',  ( -2.500000000000000000, 0.000000000000000000, 2.000000000000000000 ) ) ;
#13 =( NAMED_UNIT ( * ) PLANE_ANGLE_UNIT ( ) SI_UNIT ( $, .RADIAN. ) );
#14 = ORIENTED_EDGE ( 'NONE', *, *, #19, .T. ) ;
#15 = PRODUCT_DEFINITION ( 'NEZNÁMÝ', '', #115, #102 ) ;
#16 = AXIS2_PLACEMENT_3D ( 'NONE', #249, #166, #49 ) ;
#17 = APPROVAL_ROLE ( '' ) ;
#18 = CIRCLE ( 'NONE', #157, 1.250000000000000000 ) ;
#19 = EDGE_CURVE ( 'NONE', #64, #221, #62, .T. ) ;
#20 = ORIENTED_EDGE ( 'NONE', *, *, #3, .F. ) ;
#21 = EDGE_CURVE ( 'NONE', #188, #167, #253, .T. ) ;
#22 = ORIENTED_EDGE ( 'NONE', *, *, #178, .F. ) ;
#23 = VERTEX_POINT ( 'NONE', #103 ) ;
#24 = DIRECTION ( 'NONE',  ( -1.000000000000000000, 0.000000000000000000, 0.000000000000000000 ) ) ;
#25 = ORIENTED_EDGE ( 'NONE', *, *, #198, .F. ) ;
#26 = DIRECTION ( 'NONE',  ( 0.000000000000000000, 0.000000000000000000, 1.000000000000000000 ) ) ;
#27 = CARTESIAN_POINT ( 'NONE',  ( 0.000000000000000000, 0.000000000000000000, 0.000000000000000000 ) ) ;
#28 = DIRECTION ( 'NONE',  ( 0.000000000000000000, 0.000000000000000000, 1.000000000000000000 ) ) ;
#29 = ORIENTED_EDGE ( 'NONE', *, *, #211, .T. ) ;
#30 = DIRECTION ( 'NONE',  ( -0.000000000000000000, -0.000000000000000000, -1.000000000000000000 ) ) ;
#31 = DIRECTION ( 'NONE',  ( -0.000000000000000000, -0.000000000000000000, -1.000000000000000000 ) ) ;
#32 = DATE_AND_TIME ( #54, #90 ) ;
#33 = CC_DESIGN_PERSON_AND_ORGANIZATION_ASSIGNMENT ( #135, #177, ( #78 ) ) ;
#34 = CIRCLE ( 'NONE', #16, 1.250000000000000000 ) ;
#35 = PERSON_AND_ORGANIZATION ( #36, #156 ) ;
#36 = PERSON ( 'NEURÈENÝ', 'NEURÈENÝ', 'NEURÈENÝ', ('NEURÈENÝ'), ('NEURÈENÝ'), ('NEURÈENÝ') ) ;
#37 = APPROVAL_STATUS ( 'not_yet_approved' ) ;
#38 = EDGE_CURVE ( 'NONE', #113, #23, #232, .T. ) ;
#39 = AXIS2_PLACEMENT_3D ( 'NONE', #117, #79, #173 ) ;
#40 = ORIENTED_EDGE ( 'NONE', *, *, #3, .T. ) ;
#41 = ORIENTED_EDGE ( 'NONE', *, *, #121, .F. ) ;
#42 = AXIS2_PLACEMENT_3D ( 'NONE', #158, #236, #60 ) ;
#43 = APPROVAL_PERSON_ORGANIZATION ( #114, #251, #250 ) ;
#44 = DIRECTION ( 'NONE',  ( -1.000000000000000000, 0.000000000000000000, 0.000000000000000000 ) ) ;
#45 = ORIENTED_EDGE ( 'NONE', *, *, #150, .T. ) ;
#46 = FACE_OUTER_BOUND ( 'NONE', #84, .T. ) ;
#47 = DIRECTION ( 'NONE',  ( -0.000000000000000000, -0.000000000000000000, -1.000000000000000000 ) ) ;
#48 = ADVANCED_FACE ( 'NONE', ( #182 ), #101, .T. ) ;
#49 = DIRECTION ( 'NONE',  ( 1.000000000000000000, 0.000000000000000000, 0.000000000000000000 ) ) ;
#50 = CIRCLE ( 'NONE', #195, 1.250000000000000000 ) ;
#51 = DIRECTION ( 'NONE',  ( 0.000000000000000000, 0.000000000000000000, 1.000000000000000000 ) ) ;
#52 = CC_DESIGN_SECURITY_CLASSIFICATION ( #78, ( #115 ) ) ;
#53 = PERSON_AND_ORGANIZATION ( #36, #156 ) ;
#54 = CALENDAR_DATE ( 2022, 7, 7 ) ;
#55 = AXIS2_PLACEMENT_3D ( 'NONE', #203, #201, #86 ) ;
#56 =( GEOMETRIC_REPRESENTATION_CONTEXT ( 3 ) GLOBAL_UNCERTAINTY_ASSIGNED_CONTEXT ( ( #162 ) ) GLOBAL_UNIT_ASSIGNED_CONTEXT ( ( #181, #13, #230 ) ) REPRESENTATION_CONTEXT ( 'NONE', 'WORKASPACE' ) );
#57 = PERSON_AND_ORGANIZATION ( #36, #156 ) ;
#58 = PERSON_AND_ORGANIZATION_ROLE ( 'design_owner' ) ;
#59 = ADVANCED_FACE ( 'NONE', ( #205, #92 ), #82, .T. ) ;
#60 = DIRECTION ( 'NONE',  ( 1.000000000000000000, 0.000000000000000000, -0.000000000000000000 ) ) ;
#61 = PRODUCT ( '0840', '0840', '', ( #151 ) ) ;
#62 = LINE ( 'NONE', #1, #71 ) ;
#63 = CARTESIAN_POINT ( 'NONE',  ( 2.500000000000000000, 3.061616997868383141E-16, 2.000000000000000000 ) ) ;
#64 = VERTEX_POINT ( 'NONE', #120 ) ;
#65 = AXIS2_PLACEMENT_3D ( 'NONE', #69, #51, #148 ) ;
#66 = DIRECTION ( 'NONE',  ( 1.000000000000000000, 0.000000000000000000, 0.000000000000000000 ) ) ;
#67 = APPROVAL_ROLE ( '' ) ;
#68 = CARTESIAN_POINT ( 'NONE',  ( -1.250000000000000000, 0.000000000000000000, 162.0000000000000000 ) ) ;
#69 = CARTESIAN_POINT ( 'NONE',  ( 0.000000000000000000, 0.000000000000000000, 0.000000000000000000 ) ) ;
#70 = MANIFOLD_SOLID_BREP ( 'Pøidat vysunutím3', #96 ) ;
#71 = VECTOR ( 'NONE', #5, 1000.000000000000000 ) ;
#72 = LOCAL_TIME ( 19, 58, 24.00000000000000000, #99 ) ;
#73 = SECURITY_CLASSIFICATION_LEVEL ( 'unclassified' ) ;
#74 = COORDINATED_UNIVERSAL_TIME_OFFSET ( 1, 0, .AHEAD. ) ;
#75 = APPLICATION_CONTEXT ( 'configuration controlled 3d designs of mechanical parts and assemblies' ) ;
#76 = APPROVAL_DATE_TIME ( #192, #251 ) ;
#77 = APPROVAL ( #11, 'NEURÈENÝ' ) ;
#78 = SECURITY_CLASSIFICATION ( '', '', #73 ) ;
#79 = DIRECTION ( 'NONE',  ( 0.000000000000000000, 0.000000000000000000, 1.000000000000000000 ) ) ;
#80 = CC_DESIGN_DATE_AND_TIME_ASSIGNMENT ( #95, #149, ( #78 ) ) ;
#81 = AXIS2_PLACEMENT_3D ( 'NONE', #130, #28, #66 ) ;
#82 = PLANE ( 'NONE',  #42 ) ;
#83 = AXIS2_PLACEMENT_3D ( 'NONE', #142, #147, #44 ) ;
#84 = EDGE_LOOP ( 'NONE', ( #20, #45, #240, #25 ) ) ;
#85 = DIRECTION ( 'NONE',  ( 0.000000000000000000, 0.000000000000000000, 1.000000000000000000 ) ) ;
#86 = DIRECTION ( 'NONE',  ( 1.000000000000000000, 0.000000000000000000, 0.000000000000000000 ) ) ;
#87 = CC_DESIGN_PERSON_AND_ORGANIZATION_ASSIGNMENT ( #57, #131, ( #115 ) ) ;
#88 = DIRECTION ( 'NONE',  ( 0.000000000000000000, 0.000000000000000000, 1.000000000000000000 ) ) ;
#89 = EDGE_LOOP ( 'NONE', ( #161, #14, #125, #229 ) ) ;
#90 = LOCAL_TIME ( 19, 58, 24.00000000000000000, #74 ) ;
#91 = CARTESIAN_POINT ( 'NONE',  ( -2.500000000000000000, 0.000000000000000000, 0.000000000000000000 ) ) ;
#92 = FACE_OUTER_BOUND ( 'NONE', #217, .T. ) ;
#93 = FACE_OUTER_BOUND ( 'NONE', #89, .T. ) ;
#94 = EDGE_LOOP ( 'NONE', ( #41, #22 ) ) ;
#95 = DATE_AND_TIME ( #254, #214 ) ;
#96 = CLOSED_SHELL ( 'NONE', ( #168, #255, #98, #59, #219, #48, #191 ) ) ;
#97 = APPLICATION_PROTOCOL_DEFINITION ( 'international standard', 'config_control_design', 1994, #218 ) ;
#98 = ADVANCED_FACE ( 'NONE', ( #139 ), #200, .T. ) ;
#99 = COORDINATED_UNIVERSAL_TIME_OFFSET ( 1, 0, .AHEAD. ) ;
#100 = EDGE_CURVE ( 'NONE', #137, #185, #220, .T. ) ;
#101 = CYLINDRICAL_SURFACE ( 'NONE', #122, 1.250000000000000000 ) ;
#102 = DESIGN_CONTEXT ( 'detailed design', #75, 'design' ) ;
#103 = CARTESIAN_POINT ( 'NONE',  ( 2.500000000000000000, 3.061616997868383141E-16, 0.000000000000000000 ) ) ;
#104 = EDGE_CURVE ( 'NONE', #64, #137, #18, .T. ) ;
#105 = CARTESIAN_POINT ( 'NONE',  ( -1.250000000000000000, 0.000000000000000000, 2.000000000000000000 ) ) ;
#106 = DIRECTION ( 'NONE',  ( 0.000000000000000000, 0.000000000000000000, 1.000000000000000000 ) ) ;
#107 = CALENDAR_DATE ( 2022, 7, 7 ) ;
#108 = CARTESIAN_POINT ( 'NONE',  ( 0.000000000000000000, 0.000000000000000000, 2.000000000000000000 ) ) ;
#109 = ORIENTED_EDGE ( 'NONE', *, *, #38, .F. ) ;
#110 = CC_DESIGN_APPROVAL ( #251, ( #115 ) ) ;
#111 = CARTESIAN_POINT ( 'NONE',  ( 0.000000000000000000, 0.000000000000000000, 2.000000000000000000 ) ) ;
#112 = DIRECTION ( 'NONE',  ( 1.000000000000000000, 0.000000000000000000, 0.000000000000000000 ) ) ;
#113 = VERTEX_POINT ( 'NONE', #91 ) ;
#114 = PERSON_AND_ORGANIZATION ( #36, #156 ) ;
#115 = PRODUCT_DEFINITION_FORMATION_WITH_SPECIFIED_SOURCE ( 'LIBOVOLNÝ', '', #61, .NOT_KNOWN. ) ;
#116 = CALENDAR_DATE ( 2022, 7, 7 ) ;
#117 = CARTESIAN_POINT ( 'NONE',  ( 0.000000000000000000, 0.000000000000000000, 0.000000000000000000 ) ) ;
#118 = CC_DESIGN_PERSON_AND_ORGANIZATION_ASSIGNMENT ( #35, #58, ( #61 ) ) ;
#119 = ORIENTED_EDGE ( 'NONE', *, *, #121, .T. ) ;
#120 = CARTESIAN_POINT ( 'NONE',  ( 1.250000000000000000, 1.530808498934191571E-16, 162.0000000000000000 ) ) ;
#121 = EDGE_CURVE ( 'NONE', #185, #221, #50, .T. ) ;
#122 = AXIS2_PLACEMENT_3D ( 'NONE', #2, #47, #145 ) ;
#123 = EDGE_LOOP ( 'NONE', ( #109, #245 ) ) ;
#124 = FACE_OUTER_BOUND ( 'NONE', #7, .T. ) ;
#125 = ORIENTED_EDGE ( 'NONE', *, *, #178, .T. ) ;
#126 = DIRECTION ( 'NONE',  ( -0.000000000000000000, -0.000000000000000000, -1.000000000000000000 ) ) ;
#127 = ORIENTED_EDGE ( 'NONE', *, *, #21, .T. ) ;
#128 = PLANE ( 'NONE',  #65 ) ;
#129 = AXIS2_PLACEMENT_3D ( 'NONE', #227, #88, #169 ) ;
#130 = CARTESIAN_POINT ( 'NONE',  ( 0.000000000000000000, 0.000000000000000000, 0.000000000000000000 ) ) ;
#131 = PERSON_AND_ORGANIZATION_ROLE ( 'design_supplier' ) ;
#132 = CC_DESIGN_DATE_AND_TIME_ASSIGNMENT ( #32, #133, ( #15 ) ) ;
#133 = DATE_TIME_ROLE ( 'creation_date' ) ;
#134 = VECTOR ( 'NONE', #189, 1000.000000000000000 ) ;
#135 = PERSON_AND_ORGANIZATION ( #36, #156 ) ;
#136 = APPLICATION_PROTOCOL_DEFINITION ( 'international standard', 'config_control_design', 1994, #75 ) ;
#137 = VERTEX_POINT ( 'NONE', #9 ) ;
#138 = LOCAL_TIME ( 19, 58, 24.00000000000000000, #176 ) ;
#139 = FACE_OUTER_BOUND ( 'NONE', #146, .T. ) ;
#140 = CC_DESIGN_PERSON_AND_ORGANIZATION_ASSIGNMENT ( #153, #233, ( #115 ) ) ;
#141 = ORIENTED_EDGE ( 'NONE', *, *, #38, .T. ) ;
#142 = CARTESIAN_POINT ( 'NONE',  ( 0.000000000000000000, 0.000000000000000000, 162.0000000000000000 ) ) ;
#143 = ORIENTED_EDGE ( 'NONE', *, *, #211, .F. ) ;
#144 = LINE ( 'NONE', #12, #134 ) ;
#145 = DIRECTION ( 'NONE',  ( -1.000000000000000000, 0.000000000000000000, 0.000000000000000000 ) ) ;
#146 = EDGE_LOOP ( 'NONE', ( #165, #243, #180, #141 ) ) ;
#147 = DIRECTION ( 'NONE',  ( -0.000000000000000000, -0.000000000000000000, -1.000000000000000000 ) ) ;
#148 = DIRECTION ( 'NONE',  ( 1.000000000000000000, 0.000000000000000000, -0.000000000000000000 ) ) ;
#149 = DATE_TIME_ROLE ( 'classification_date' ) ;
#150 = EDGE_CURVE ( 'NONE', #167, #23, #225, .T. ) ;
#151 = MECHANICAL_CONTEXT ( 'NONE', #218, 'mechanical' ) ;
#152 = AXIS2_PLACEMENT_3D ( 'NONE', #246, #126, #24 ) ;
#153 = PERSON_AND_ORGANIZATION ( #36, #156 ) ;
#154 = CIRCLE ( 'NONE', #81, 2.500000000000000000 ) ;
#155 = EDGE_LOOP ( 'NONE', ( #174, #143, #247, #119 ) ) ;
#156 = ORGANIZATION ( 'NEURÈENÝ', 'NEURÈENÝ', '' ) ;
#157 = AXIS2_PLACEMENT_3D ( 'NONE', #4, #85, #202 ) ;
#158 = CARTESIAN_POINT ( 'NONE',  ( 0.000000000000000000, 0.000000000000000000, 2.000000000000000000 ) ) ;
#159 = AXIS2_PLACEMENT_3D ( 'NONE', #111, #172, #184 ) ;
#160 = COORDINATED_UNIVERSAL_TIME_OFFSET ( 1, 0, .AHEAD. ) ;
#161 = ORIENTED_EDGE ( 'NONE', *, *, #104, .F. ) ;
#162 = UNCERTAINTY_MEASURE_WITH_UNIT (LENGTH_MEASURE( 1.000000000000000082E-05 ), #181, 'distance_accuracy_value', 'NONE');
#163 = PRODUCT_DEFINITION_SHAPE ( 'NONE', 'NONE',  #15 ) ;
#164 = DIRECTION ( 'NONE',  ( -0.000000000000000000, -0.000000000000000000, -1.000000000000000000 ) ) ;
#165 = ORIENTED_EDGE ( 'NONE', *, *, #150, .F. ) ;
#166 = DIRECTION ( 'NONE',  ( 0.000000000000000000, 0.000000000000000000, 1.000000000000000000 ) ) ;
#167 = VERTEX_POINT ( 'NONE', #187 ) ;
#168 = ADVANCED_FACE ( 'NONE', ( #93 ), #223, .T. ) ;
#169 = DIRECTION ( 'NONE',  ( 1.000000000000000000, 0.000000000000000000, -0.000000000000000000 ) ) ;
#170 = CARTESIAN_POINT ( 'NONE',  ( 0.000000000000000000, 0.000000000000000000, 2.000000000000000000 ) ) ;
#171 = DATE_AND_TIME ( #107, #193 ) ;
#172 = DIRECTION ( 'NONE',  ( 0.000000000000000000, 0.000000000000000000, 1.000000000000000000 ) ) ;
#173 = DIRECTION ( 'NONE',  ( 1.000000000000000000, 0.000000000000000000, 0.000000000000000000 ) ) ;
#174 = ORIENTED_EDGE ( 'NONE', *, *, #19, .F. ) ;
#175 = CALENDAR_DATE ( 2022, 7, 7 ) ;
#176 = COORDINATED_UNIVERSAL_TIME_OFFSET ( 1, 0, .AHEAD. ) ;
#177 = PERSON_AND_ORGANIZATION_ROLE ( 'classification_officer' ) ;
#178 = EDGE_CURVE ( 'NONE', #221, #185, #215, .T. ) ;
#179 = AXIS2_PLACEMENT_3D ( 'NONE', #170, #216, #237 ) ;
#180 = ORIENTED_EDGE ( 'NONE', *, *, #198, .T. ) ;
#181 =( LENGTH_UNIT ( ) NAMED_UNIT ( * ) SI_UNIT ( .MILLI., .METRE. ) );
#182 = FACE_OUTER_BOUND ( 'NONE', #155, .T. ) ;
#183 = SHAPE_DEFINITION_REPRESENTATION ( #163, #244 ) ;
#184 = DIRECTION ( 'NONE',  ( 1.000000000000000000, 0.000000000000000000, 0.000000000000000000 ) ) ;
#185 = VERTEX_POINT ( 'NONE', #105 ) ;
#186 = PRODUCT_RELATED_PRODUCT_CATEGORY ( 'detail', '', ( #61 ) ) ;
#187 = CARTESIAN_POINT ( 'NONE',  ( 2.500000000000000000, 3.061616997868383141E-16, 2.000000000000000000 ) ) ;
#188 = VERTEX_POINT ( 'NONE', #239 ) ;
#189 = DIRECTION ( 'NONE',  ( -0.000000000000000000, -0.000000000000000000, -1.000000000000000000 ) ) ;
#190 = DIRECTION ( 'NONE',  ( -1.000000000000000000, 0.000000000000000000, 0.000000000000000000 ) ) ;
#191 = ADVANCED_FACE ( 'NONE', ( #124 ), #6, .T. ) ;
#192 = DATE_AND_TIME ( #116, #72 ) ;
#193 = LOCAL_TIME ( 19, 58, 24.00000000000000000, #160 ) ;
#194 = PERSON_AND_ORGANIZATION ( #36, #156 ) ;
#195 = AXIS2_PLACEMENT_3D ( 'NONE', #108, #26, #112 ) ;
#196 = PERSON_AND_ORGANIZATION_ROLE ( 'creator' ) ;
#197 = CC_DESIGN_APPROVAL ( #77, ( #78 ) ) ;
#198 = EDGE_CURVE ( 'NONE', #188, #113, #144, .T. ) ;
#199 = APPROVAL_PERSON_ORGANIZATION ( #194, #213, #17 ) ;
#200 = CYLINDRICAL_SURFACE ( 'NONE', #152, 2.500000000000000000 ) ;
#201 = DIRECTION ( 'NONE',  ( 0.000000000000000000, 0.000000000000000000, 1.000000000000000000 ) ) ;
#202 = DIRECTION ( 'NONE',  ( 1.000000000000000000, 0.000000000000000000, 0.000000000000000000 ) ) ;
#203 = CARTESIAN_POINT ( 'NONE',  ( 0.000000000000000000, 0.000000000000000000, 2.000000000000000000 ) ) ;
#204 = CARTESIAN_POINT ( 'NONE',  ( 0.000000000000000000, 0.000000000000000000, 2.000000000000000000 ) ) ;
#205 = FACE_BOUND ( 'NONE', #94, .T. ) ;
#206 = CARTESIAN_POINT ( 'NONE',  ( 1.250000000000000000, 1.530808498934191571E-16, 2.000000000000000000 ) ) ;
#207 = CYLINDRICAL_SURFACE ( 'NONE', #210, 2.500000000000000000 ) ;
#208 = COORDINATED_UNIVERSAL_TIME_OFFSET ( 1, 0, .AHEAD. ) ;
#209 = APPROVAL_STATUS ( 'not_yet_approved' ) ;
#210 = AXIS2_PLACEMENT_3D ( 'NONE', #204, #31, #190 ) ;
#211 = EDGE_CURVE ( 'NONE', #137, #64, #34, .T. ) ;
#212 = DATE_AND_TIME ( #175, #138 ) ;
#213 = APPROVAL ( #37, 'NEURÈENÝ' ) ;
#214 = LOCAL_TIME ( 19, 58, 24.00000000000000000, #208 ) ;
#215 = CIRCLE ( 'NONE', #159, 1.250000000000000000 ) ;
#216 = DIRECTION ( 'NONE',  ( 0.000000000000000000, 0.000000000000000000, 1.000000000000000000 ) ) ;
#217 = EDGE_LOOP ( 'NONE', ( #127, #40 ) ) ;
#218 = APPLICATION_CONTEXT ( 'configuration controlled 3d designs of mechanical parts and assemblies' ) ;
#219 = ADVANCED_FACE ( 'NONE', ( #242 ), #128, .F. ) ;
#220 = LINE ( 'NONE', #68, #8 ) ;
#221 = VERTEX_POINT ( 'NONE', #206 ) ;
#222 = CC_DESIGN_APPROVAL ( #213, ( #15 ) ) ;
#223 = CYLINDRICAL_SURFACE ( 'NONE', #83, 1.250000000000000000 ) ;
#224 = ORIENTED_EDGE ( 'NONE', *, *, #104, .T. ) ;
#225 = LINE ( 'NONE', #63, #226 ) ;
#226 = VECTOR ( 'NONE', #164, 1000.000000000000000 ) ;
#227 = CARTESIAN_POINT ( 'NONE',  ( 0.000000000000000000, 0.000000000000000000, 162.0000000000000000 ) ) ;
#228 = PERSON_AND_ORGANIZATION ( #36, #156 ) ;
#229 = ORIENTED_EDGE ( 'NONE', *, *, #100, .F. ) ;
#230 =( NAMED_UNIT ( * ) SI_UNIT ( $, .STERADIAN. ) SOLID_ANGLE_UNIT ( ) );
#231 = CC_DESIGN_PERSON_AND_ORGANIZATION_ASSIGNMENT ( #53, #196, ( #15 ) ) ;
#232 = CIRCLE ( 'NONE', #235, 2.500000000000000000 ) ;
#233 = PERSON_AND_ORGANIZATION_ROLE ( 'creator' ) ;
#234 = APPROVAL_PERSON_ORGANIZATION ( #228, #77, #67 ) ;
#235 = AXIS2_PLACEMENT_3D ( 'NONE', #27, #106, #10 ) ;
#236 = DIRECTION ( 'NONE',  ( 0.000000000000000000, 0.000000000000000000, 1.000000000000000000 ) ) ;
#237 = DIRECTION ( 'NONE',  ( 1.000000000000000000, 0.000000000000000000, 0.000000000000000000 ) ) ;
#238 = EDGE_CURVE ( 'NONE', #23, #113, #154, .T. ) ;
#239 = CARTESIAN_POINT ( 'NONE',  ( -2.500000000000000000, 0.000000000000000000, 2.000000000000000000 ) ) ;
#240 = ORIENTED_EDGE ( 'NONE', *, *, #238, .T. ) ;
#241 = CIRCLE ( 'NONE', #179, 2.500000000000000000 ) ;
#242 = FACE_OUTER_BOUND ( 'NONE', #123, .T. ) ;
#243 = ORIENTED_EDGE ( 'NONE', *, *, #21, .F. ) ;
#244 = ADVANCED_BREP_SHAPE_REPRESENTATION ( '0840', ( #70, #39 ), #56 ) ;
#245 = ORIENTED_EDGE ( 'NONE', *, *, #238, .F. ) ;
#246 = CARTESIAN_POINT ( 'NONE',  ( 0.000000000000000000, 0.000000000000000000, 2.000000000000000000 ) ) ;
#247 = ORIENTED_EDGE ( 'NONE', *, *, #100, .T. ) ;
#248 = APPROVAL_DATE_TIME ( #171, #77 ) ;
#249 = CARTESIAN_POINT ( 'NONE',  ( 0.000000000000000000, 0.000000000000000000, 162.0000000000000000 ) ) ;
#250 = APPROVAL_ROLE ( '' ) ;
#251 = APPROVAL ( #209, 'NEURÈENÝ' ) ;
#252 = APPROVAL_DATE_TIME ( #212, #213 ) ;
#253 = CIRCLE ( 'NONE', #55, 2.500000000000000000 ) ;
#254 = CALENDAR_DATE ( 2022, 7, 7 ) ;
#255 = ADVANCED_FACE ( 'NONE', ( #46 ), #207, .T. ) ;
ENDSEC;
END-ISO-10303-21;
