ISO-10303-21;
HEADER;
FILE_DESCRIPTION (( 'STEP AP203' ),
    '1' );
FILE_NAME ('7691.STEP',
    '2022-07-07T17:46:59',
    ( '' ),
    ( '' ),
    'SwSTEP 2.0',
    'SolidWorks 2019',
    '' );
FILE_SCHEMA (( 'CONFIG_CONTROL_DESIGN' ));
ENDSEC;

DATA;
#1 = CARTESIAN_POINT ( 'NONE',  ( 5.000000000000000000, 6.123233995736766282E-16, 3.000000000000000000 ) ) ;
#2 = CARTESIAN_POINT ( 'NONE',  ( 0.000000000000000000, 0.000000000000000000, 253.0000000000000000 ) ) ;
#3 = DATE_AND_TIME ( #177, #188 ) ;
#4 = DIRECTION ( 'NONE',  ( 0.000000000000000000, 0.000000000000000000, 1.000000000000000000 ) ) ;
#5 = CALENDAR_DATE ( 2022, 7, 7 ) ;
#6 = CIRCLE ( 'NONE', #150, 5.000000000000000000 ) ;
#7 = CYLINDRICAL_SURFACE ( 'NONE', #180, 2.500000000000000000 ) ;
#8 = ORIENTED_EDGE ( 'NONE', *, *, #187, .T. ) ;
#9 = EDGE_LOOP ( 'NONE', ( #197, #62, #224, #144 ) ) ;
#10 = APPROVAL_DATE_TIME ( #247, #157 ) ;
#11 = CIRCLE ( 'NONE', #15, 5.000000000000000000 ) ;
#12 = FACE_BOUND ( 'NONE', #148, .T. ) ;
#13 = CARTESIAN_POINT ( 'NONE',  ( 5.000000000000000000, 6.123233995736766282E-16, 0.000000000000000000 ) ) ;
#14 = CARTESIAN_POINT ( 'NONE',  ( 0.000000000000000000, 0.000000000000000000, 0.000000000000000000 ) ) ;
#15 = AXIS2_PLACEMENT_3D ( 'NONE', #33, #189, #36 ) ;
#16 = CARTESIAN_POINT ( 'NONE',  ( 0.000000000000000000, 0.000000000000000000, 253.0000000000000000 ) ) ;
#17 = CALENDAR_DATE ( 2022, 7, 7 ) ;
#18 = APPROVAL ( #155, 'NEURÈENÝ' ) ;
#19 = CARTESIAN_POINT ( 'NONE',  ( -5.000000000000000000, 0.000000000000000000, 3.000000000000000000 ) ) ;
#20 = EDGE_CURVE ( 'NONE', #119, #42, #6, .T. ) ;
#21 = ORIENTED_EDGE ( 'NONE', *, *, #226, .F. ) ;
#22 = SECURITY_CLASSIFICATION_LEVEL ( 'unclassified' ) ;
#23 = CARTESIAN_POINT ( 'NONE',  ( 0.000000000000000000, 0.000000000000000000, 3.000000000000000000 ) ) ;
#24 = APPROVAL_STATUS ( 'not_yet_approved' ) ;
#25 = PLANE ( 'NONE',  #39 ) ;
#26 = AXIS2_PLACEMENT_3D ( 'NONE', #246, #4, #70 ) ;
#27 = APPLICATION_PROTOCOL_DEFINITION ( 'international standard', 'config_control_design', 1994, #176 ) ;
#28 = VECTOR ( 'NONE', #31, 1000.000000000000000 ) ;
#29 = ORIENTED_EDGE ( 'NONE', *, *, #20, .T. ) ;
#30 = ADVANCED_FACE ( 'NONE', ( #199 ), #25, .F. ) ;
#31 = DIRECTION ( 'NONE',  ( -0.000000000000000000, -0.000000000000000000, -1.000000000000000000 ) ) ;
#32 = CC_DESIGN_APPROVAL ( #157, ( #234 ) ) ;
#33 = CARTESIAN_POINT ( 'NONE',  ( 0.000000000000000000, 0.000000000000000000, 0.000000000000000000 ) ) ;
#34 = CC_DESIGN_PERSON_AND_ORGANIZATION_ASSIGNMENT ( #229, #120, ( #130 ) ) ;
#35 = CARTESIAN_POINT ( 'NONE',  ( -5.000000000000000000, 0.000000000000000000, 0.000000000000000000 ) ) ;
#36 = DIRECTION ( 'NONE',  ( 1.000000000000000000, 0.000000000000000000, 0.000000000000000000 ) ) ;
#37 = ADVANCED_FACE ( 'NONE', ( #181 ), #7, .T. ) ;
#38 = APPROVAL_ROLE ( '' ) ;
#39 = AXIS2_PLACEMENT_3D ( 'NONE', #223, #175, #104 ) ;
#40 = CC_DESIGN_APPROVAL ( #18, ( #130 ) ) ;
#41 = COORDINATED_UNIVERSAL_TIME_OFFSET ( 1, 0, .AHEAD. ) ;
#42 = VERTEX_POINT ( 'NONE', #19 ) ;
#43 = ORIENTED_EDGE ( 'NONE', *, *, #226, .T. ) ;
#44 = ORIENTED_EDGE ( 'NONE', *, *, #20, .F. ) ;
#45 = PERSON_AND_ORGANIZATION ( #127, #254 ) ;
#46 = ORIENTED_EDGE ( 'NONE', *, *, #57, .T. ) ;
#47 = ADVANCED_FACE ( 'NONE', ( #89 ), #159, .T. ) ;
#48 = CARTESIAN_POINT ( 'NONE',  ( 2.500000000000000000, 3.061616997868383141E-16, 3.000000000000000000 ) ) ;
#49 =( NAMED_UNIT ( * ) PLANE_ANGLE_UNIT ( ) SI_UNIT ( $, .RADIAN. ) );
#50 = DIRECTION ( 'NONE',  ( 1.000000000000000000, 0.000000000000000000, 0.000000000000000000 ) ) ;
#51 = PRODUCT_RELATED_PRODUCT_CATEGORY ( 'detail', '', ( #56 ) ) ;
#52 = FACE_OUTER_BOUND ( 'NONE', #204, .T. ) ;
#53 = FACE_OUTER_BOUND ( 'NONE', #214, .T. ) ;
#54 = LOCAL_TIME ( 19, 46, 59.00000000000000000, #69 ) ;
#55 = DIRECTION ( 'NONE',  ( -0.000000000000000000, -0.000000000000000000, -1.000000000000000000 ) ) ;
#56 = PRODUCT ( '7691', '7691', '', ( #205 ) ) ;
#57 = EDGE_CURVE ( 'NONE', #225, #137, #105, .T. ) ;
#58 = CARTESIAN_POINT ( 'NONE',  ( 0.000000000000000000, 0.000000000000000000, 253.0000000000000000 ) ) ;
#59 =( GEOMETRIC_REPRESENTATION_CONTEXT ( 3 ) GLOBAL_UNCERTAINTY_ASSIGNED_CONTEXT ( ( #228 ) ) GLOBAL_UNIT_ASSIGNED_CONTEXT ( ( #230, #49, #126 ) ) REPRESENTATION_CONTEXT ( 'NONE', 'WORKASPACE' ) );
#60 = MANIFOLD_SOLID_BREP ( 'Pøidat vysunutím3', #129 ) ;
#61 = LOCAL_TIME ( 19, 46, 59.00000000000000000, #227 ) ;
#62 = ORIENTED_EDGE ( 'NONE', *, *, #57, .F. ) ;
#63 = DATE_AND_TIME ( #118, #172 ) ;
#64 = VERTEX_POINT ( 'NONE', #48 ) ;
#65 = CIRCLE ( 'NONE', #117, 2.500000000000000000 ) ;
#66 = PERSON_AND_ORGANIZATION ( #127, #254 ) ;
#67 = ORIENTED_EDGE ( 'NONE', *, *, #191, .F. ) ;
#68 = CC_DESIGN_PERSON_AND_ORGANIZATION_ASSIGNMENT ( #123, #91, ( #234 ) ) ;
#69 = COORDINATED_UNIVERSAL_TIME_OFFSET ( 1, 0, .AHEAD. ) ;
#70 = DIRECTION ( 'NONE',  ( 1.000000000000000000, 0.000000000000000000, 0.000000000000000000 ) ) ;
#71 = DATE_AND_TIME ( #245, #54 ) ;
#72 = DATE_TIME_ROLE ( 'creation_date' ) ;
#73 = VERTEX_POINT ( 'NONE', #124 ) ;
#74 = LINE ( 'NONE', #154, #106 ) ;
#75 = ORIENTED_EDGE ( 'NONE', *, *, #94, .T. ) ;
#76 = DIRECTION ( 'NONE',  ( 1.000000000000000000, 0.000000000000000000, 0.000000000000000000 ) ) ;
#77 = EDGE_CURVE ( 'NONE', #119, #208, #116, .T. ) ;
#78 = DIRECTION ( 'NONE',  ( -1.000000000000000000, 0.000000000000000000, 0.000000000000000000 ) ) ;
#79 = LINE ( 'NONE', #133, #238 ) ;
#80 = APPROVAL_DATE_TIME ( #84, #18 ) ;
#81 = AXIS2_PLACEMENT_3D ( 'NONE', #221, #166, #50 ) ;
#82 = EDGE_LOOP ( 'NONE', ( #67, #75, #239, #162 ) ) ;
#83 = EDGE_CURVE ( 'NONE', #42, #160, #113, .T. ) ;
#84 = DATE_AND_TIME ( #17, #210 ) ;
#85 = DIRECTION ( 'NONE',  ( -0.000000000000000000, -0.000000000000000000, -1.000000000000000000 ) ) ;
#86 = DIRECTION ( 'NONE',  ( -1.000000000000000000, 0.000000000000000000, 0.000000000000000000 ) ) ;
#87 = ADVANCED_FACE ( 'NONE', ( #52 ), #232, .T. ) ;
#88 = CARTESIAN_POINT ( 'NONE',  ( 0.000000000000000000, 0.000000000000000000, 3.000000000000000000 ) ) ;
#89 = FACE_OUTER_BOUND ( 'NONE', #102, .T. ) ;
#90 = CC_DESIGN_PERSON_AND_ORGANIZATION_ASSIGNMENT ( #66, #248, ( #216 ) ) ;
#91 = PERSON_AND_ORGANIZATION_ROLE ( 'creator' ) ;
#92 = CC_DESIGN_APPROVAL ( #212, ( #216 ) ) ;
#93 = CARTESIAN_POINT ( 'NONE',  ( 5.000000000000000000, 6.123233995736766282E-16, 3.000000000000000000 ) ) ;
#94 = EDGE_CURVE ( 'NONE', #137, #64, #79, .T. ) ;
#95 = CARTESIAN_POINT ( 'NONE',  ( -2.500000000000000000, 0.000000000000000000, 253.0000000000000000 ) ) ;
#96 = DIRECTION ( 'NONE',  ( -0.000000000000000000, -0.000000000000000000, -1.000000000000000000 ) ) ;
#97 = DIRECTION ( 'NONE',  ( 0.000000000000000000, 0.000000000000000000, 1.000000000000000000 ) ) ;
#98 = ADVANCED_FACE ( 'NONE', ( #153 ), #132, .T. ) ;
#99 = EDGE_LOOP ( 'NONE', ( #174, #29 ) ) ;
#100 = ORIENTED_EDGE ( 'NONE', *, *, #83, .T. ) ;
#101 = COORDINATED_UNIVERSAL_TIME_OFFSET ( 1, 0, .AHEAD. ) ;
#102 = EDGE_LOOP ( 'NONE', ( #44, #241, #43, #173 ) ) ;
#103 = APPROVAL_ROLE ( '' ) ;
#104 = DIRECTION ( 'NONE',  ( 1.000000000000000000, 0.000000000000000000, -0.000000000000000000 ) ) ;
#105 = CIRCLE ( 'NONE', #26, 2.500000000000000000 ) ;
#106 = VECTOR ( 'NONE', #235, 1000.000000000000000 ) ;
#107 = APPROVAL_STATUS ( 'not_yet_approved' ) ;
#108 = PERSON_AND_ORGANIZATION_ROLE ( 'design_owner' ) ;
#109 = PRODUCT_DEFINITION_SHAPE ( 'NONE', 'NONE',  #234 ) ;
#110 = DIRECTION ( 'NONE',  ( -0.000000000000000000, -0.000000000000000000, -1.000000000000000000 ) ) ;
#111 = EDGE_CURVE ( 'NONE', #225, #73, #74, .T. ) ;
#112 = CARTESIAN_POINT ( 'NONE',  ( 0.000000000000000000, 0.000000000000000000, 3.000000000000000000 ) ) ;
#113 = LINE ( 'NONE', #168, #28 ) ;
#114 = APPROVAL_PERSON_ORGANIZATION ( #185, #157, #103 ) ;
#115 = DIRECTION ( 'NONE',  ( 0.000000000000000000, 0.000000000000000000, 1.000000000000000000 ) ) ;
#116 = LINE ( 'NONE', #1, #243 ) ;
#117 = AXIS2_PLACEMENT_3D ( 'NONE', #194, #97, #171 ) ;
#118 = CALENDAR_DATE ( 2022, 7, 7 ) ;
#119 = VERTEX_POINT ( 'NONE', #93 ) ;
#120 = PERSON_AND_ORGANIZATION_ROLE ( 'classification_officer' ) ;
#121 = DIRECTION ( 'NONE',  ( 0.000000000000000000, 0.000000000000000000, 1.000000000000000000 ) ) ;
#122 = CC_DESIGN_DATE_AND_TIME_ASSIGNMENT ( #71, #72, ( #234 ) ) ;
#123 = PERSON_AND_ORGANIZATION ( #127, #254 ) ;
#124 = CARTESIAN_POINT ( 'NONE',  ( -2.500000000000000000, 0.000000000000000000, 3.000000000000000000 ) ) ;
#125 = AXIS2_PLACEMENT_3D ( 'NONE', #16, #110, #134 ) ;
#126 =( NAMED_UNIT ( * ) SI_UNIT ( $, .STERADIAN. ) SOLID_ANGLE_UNIT ( ) );
#127 = PERSON ( 'NEURÈENÝ', 'NEURÈENÝ', 'NEURÈENÝ', ('NEURÈENÝ'), ('NEURÈENÝ'), ('NEURÈENÝ') ) ;
#128 = CARTESIAN_POINT ( 'NONE',  ( 0.000000000000000000, 0.000000000000000000, 3.000000000000000000 ) ) ;
#129 = CLOSED_SHELL ( 'NONE', ( #98, #47, #152, #196, #30, #37, #87 ) ) ;
#130 = SECURITY_CLASSIFICATION ( '', '', #22 ) ;
#131 = DIRECTION ( 'NONE',  ( 1.000000000000000000, 0.000000000000000000, -0.000000000000000000 ) ) ;
#132 = CYLINDRICAL_SURFACE ( 'NONE', #125, 2.500000000000000000 ) ;
#133 = CARTESIAN_POINT ( 'NONE',  ( 2.500000000000000000, 3.061616997868383141E-16, 253.0000000000000000 ) ) ;
#134 = DIRECTION ( 'NONE',  ( -1.000000000000000000, 0.000000000000000000, 0.000000000000000000 ) ) ;
#135 = EDGE_CURVE ( 'NONE', #73, #64, #222, .T. ) ;
#136 = AXIS2_PLACEMENT_3D ( 'NONE', #128, #233, #76 ) ;
#137 = VERTEX_POINT ( 'NONE', #170 ) ;
#138 = ADVANCED_BREP_SHAPE_REPRESENTATION ( '7691', ( #60, #81 ), #59 ) ;
#139 = PERSON_AND_ORGANIZATION_ROLE ( 'creator' ) ;
#140 = DIRECTION ( 'NONE',  ( 1.000000000000000000, 0.000000000000000000, 0.000000000000000000 ) ) ;
#141 = AXIS2_PLACEMENT_3D ( 'NONE', #213, #151, #192 ) ;
#142 = PERSON_AND_ORGANIZATION ( #127, #254 ) ;
#143 = ORIENTED_EDGE ( 'NONE', *, *, #202, .F. ) ;
#144 = ORIENTED_EDGE ( 'NONE', *, *, #135, .T. ) ;
#145 = ORIENTED_EDGE ( 'NONE', *, *, #187, .F. ) ;
#146 = AXIS2_PLACEMENT_3D ( 'NONE', #58, #211, #209 ) ;
#147 = ORIENTED_EDGE ( 'NONE', *, *, #249, .F. ) ;
#148 = EDGE_LOOP ( 'NONE', ( #165, #147 ) ) ;
#149 = CARTESIAN_POINT ( 'NONE',  ( 0.000000000000000000, 0.000000000000000000, 3.000000000000000000 ) ) ;
#150 = AXIS2_PLACEMENT_3D ( 'NONE', #88, #121, #140 ) ;
#151 = DIRECTION ( 'NONE',  ( 0.000000000000000000, 0.000000000000000000, 1.000000000000000000 ) ) ;
#152 = ADVANCED_FACE ( 'NONE', ( #53 ), #252, .T. ) ;
#153 = FACE_OUTER_BOUND ( 'NONE', #82, .T. ) ;
#154 = CARTESIAN_POINT ( 'NONE',  ( -2.500000000000000000, 0.000000000000000000, 253.0000000000000000 ) ) ;
#155 = APPROVAL_STATUS ( 'not_yet_approved' ) ;
#156 = AXIS2_PLACEMENT_3D ( 'NONE', #14, #115, #251 ) ;
#157 = APPROVAL ( #24, 'NEURÈENÝ' ) ;
#158 = CIRCLE ( 'NONE', #183, 5.000000000000000000 ) ;
#159 = CYLINDRICAL_SURFACE ( 'NONE', #163, 5.000000000000000000 ) ;
#160 = VERTEX_POINT ( 'NONE', #35 ) ;
#161 = APPLICATION_PROTOCOL_DEFINITION ( 'international standard', 'config_control_design', 1994, #193 ) ;
#162 = ORIENTED_EDGE ( 'NONE', *, *, #111, .F. ) ;
#163 = AXIS2_PLACEMENT_3D ( 'NONE', #23, #206, #178 ) ;
#164 = CIRCLE ( 'NONE', #146, 2.500000000000000000 ) ;
#165 = ORIENTED_EDGE ( 'NONE', *, *, #135, .F. ) ;
#166 = DIRECTION ( 'NONE',  ( 0.000000000000000000, 0.000000000000000000, 1.000000000000000000 ) ) ;
#167 = COORDINATED_UNIVERSAL_TIME_OFFSET ( 1, 0, .AHEAD. ) ;
#168 = CARTESIAN_POINT ( 'NONE',  ( -5.000000000000000000, 0.000000000000000000, 3.000000000000000000 ) ) ;
#169 = DIRECTION ( 'NONE',  ( 0.000000000000000000, 0.000000000000000000, 1.000000000000000000 ) ) ;
#170 = CARTESIAN_POINT ( 'NONE',  ( 2.500000000000000000, 3.061616997868383141E-16, 253.0000000000000000 ) ) ;
#171 = DIRECTION ( 'NONE',  ( 1.000000000000000000, 0.000000000000000000, 0.000000000000000000 ) ) ;
#172 = LOCAL_TIME ( 19, 46, 59.00000000000000000, #167 ) ;
#173 = ORIENTED_EDGE ( 'NONE', *, *, #83, .F. ) ;
#174 = ORIENTED_EDGE ( 'NONE', *, *, #202, .T. ) ;
#175 = DIRECTION ( 'NONE',  ( 0.000000000000000000, 0.000000000000000000, 1.000000000000000000 ) ) ;
#176 = APPLICATION_CONTEXT ( 'configuration controlled 3d designs of mechanical parts and assemblies' ) ;
#177 = CALENDAR_DATE ( 2022, 7, 7 ) ;
#178 = DIRECTION ( 'NONE',  ( -1.000000000000000000, 0.000000000000000000, 0.000000000000000000 ) ) ;
#179 = PERSON_AND_ORGANIZATION ( #127, #254 ) ;
#180 = AXIS2_PLACEMENT_3D ( 'NONE', #2, #201, #86 ) ;
#181 = FACE_OUTER_BOUND ( 'NONE', #9, .T. ) ;
#182 = CIRCLE ( 'NONE', #156, 5.000000000000000000 ) ;
#183 = AXIS2_PLACEMENT_3D ( 'NONE', #112, #169, #190 ) ;
#184 = APPROVAL_ROLE ( '' ) ;
#185 = PERSON_AND_ORGANIZATION ( #127, #254 ) ;
#186 = DESIGN_CONTEXT ( 'detailed design', #176, 'design' ) ;
#187 = EDGE_CURVE ( 'NONE', #160, #208, #11, .T. ) ;
#188 = LOCAL_TIME ( 19, 46, 59.00000000000000000, #101 ) ;
#189 = DIRECTION ( 'NONE',  ( 0.000000000000000000, 0.000000000000000000, 1.000000000000000000 ) ) ;
#190 = DIRECTION ( 'NONE',  ( 1.000000000000000000, 0.000000000000000000, 0.000000000000000000 ) ) ;
#191 = EDGE_CURVE ( 'NONE', #137, #225, #164, .T. ) ;
#192 = DIRECTION ( 'NONE',  ( 1.000000000000000000, 0.000000000000000000, -0.000000000000000000 ) ) ;
#193 = APPLICATION_CONTEXT ( 'configuration controlled 3d designs of mechanical parts and assemblies' ) ;
#194 = CARTESIAN_POINT ( 'NONE',  ( 0.000000000000000000, 0.000000000000000000, 3.000000000000000000 ) ) ;
#195 = CC_DESIGN_SECURITY_CLASSIFICATION ( #130, ( #216 ) ) ;
#196 = ADVANCED_FACE ( 'NONE', ( #12, #215 ), #250, .T. ) ;
#197 = ORIENTED_EDGE ( 'NONE', *, *, #94, .F. ) ;
#198 = APPROVAL_PERSON_ORGANIZATION ( #45, #212, #184 ) ;
#199 = FACE_OUTER_BOUND ( 'NONE', #244, .T. ) ;
#200 = APPROVAL_DATE_TIME ( #63, #212 ) ;
#201 = DIRECTION ( 'NONE',  ( -0.000000000000000000, -0.000000000000000000, -1.000000000000000000 ) ) ;
#202 = EDGE_CURVE ( 'NONE', #42, #119, #158, .T. ) ;
#203 = DATE_TIME_ROLE ( 'classification_date' ) ;
#204 = EDGE_LOOP ( 'NONE', ( #46, #219 ) ) ;
#205 = MECHANICAL_CONTEXT ( 'NONE', #193, 'mechanical' ) ;
#206 = DIRECTION ( 'NONE',  ( -0.000000000000000000, -0.000000000000000000, -1.000000000000000000 ) ) ;
#207 = APPROVAL_PERSON_ORGANIZATION ( #179, #18, #38 ) ;
#208 = VERTEX_POINT ( 'NONE', #13 ) ;
#209 = DIRECTION ( 'NONE',  ( 1.000000000000000000, 0.000000000000000000, 0.000000000000000000 ) ) ;
#210 = LOCAL_TIME ( 19, 46, 59.00000000000000000, #41 ) ;
#211 = DIRECTION ( 'NONE',  ( 0.000000000000000000, 0.000000000000000000, 1.000000000000000000 ) ) ;
#212 = APPROVAL ( #107, 'NEURÈENÝ' ) ;
#213 = CARTESIAN_POINT ( 'NONE',  ( 0.000000000000000000, 0.000000000000000000, 253.0000000000000000 ) ) ;
#214 = EDGE_LOOP ( 'NONE', ( #220, #143, #100, #8 ) ) ;
#215 = FACE_OUTER_BOUND ( 'NONE', #99, .T. ) ;
#216 = PRODUCT_DEFINITION_FORMATION_WITH_SPECIFIED_SOURCE ( 'LIBOVOLNÝ', '', #56, .NOT_KNOWN. ) ;
#217 = SHAPE_DEFINITION_REPRESENTATION ( #109, #138 ) ;
#218 = AXIS2_PLACEMENT_3D ( 'NONE', #149, #231, #131 ) ;
#219 = ORIENTED_EDGE ( 'NONE', *, *, #191, .T. ) ;
#220 = ORIENTED_EDGE ( 'NONE', *, *, #77, .F. ) ;
#221 = CARTESIAN_POINT ( 'NONE',  ( 0.000000000000000000, 0.000000000000000000, 0.000000000000000000 ) ) ;
#222 = CIRCLE ( 'NONE', #136, 2.500000000000000000 ) ;
#223 = CARTESIAN_POINT ( 'NONE',  ( 0.000000000000000000, 0.000000000000000000, 0.000000000000000000 ) ) ;
#224 = ORIENTED_EDGE ( 'NONE', *, *, #111, .T. ) ;
#225 = VERTEX_POINT ( 'NONE', #95 ) ;
#226 = EDGE_CURVE ( 'NONE', #208, #160, #182, .T. ) ;
#227 = COORDINATED_UNIVERSAL_TIME_OFFSET ( 1, 0, .AHEAD. ) ;
#228 = UNCERTAINTY_MEASURE_WITH_UNIT (LENGTH_MEASURE( 1.000000000000000082E-05 ), #230, 'distance_accuracy_value', 'NONE');
#229 = PERSON_AND_ORGANIZATION ( #127, #254 ) ;
#230 =( LENGTH_UNIT ( ) NAMED_UNIT ( * ) SI_UNIT ( .MILLI., .METRE. ) );
#231 = DIRECTION ( 'NONE',  ( 0.000000000000000000, 0.000000000000000000, 1.000000000000000000 ) ) ;
#232 = PLANE ( 'NONE',  #141 ) ;
#233 = DIRECTION ( 'NONE',  ( 0.000000000000000000, 0.000000000000000000, 1.000000000000000000 ) ) ;
#234 = PRODUCT_DEFINITION ( 'NEZNÁMÝ', '', #216, #186 ) ;
#235 = DIRECTION ( 'NONE',  ( -0.000000000000000000, -0.000000000000000000, -1.000000000000000000 ) ) ;
#236 = AXIS2_PLACEMENT_3D ( 'NONE', #253, #55, #78 ) ;
#237 = CC_DESIGN_PERSON_AND_ORGANIZATION_ASSIGNMENT ( #142, #139, ( #216 ) ) ;
#238 = VECTOR ( 'NONE', #96, 1000.000000000000000 ) ;
#239 = ORIENTED_EDGE ( 'NONE', *, *, #249, .T. ) ;
#240 = CC_DESIGN_DATE_AND_TIME_ASSIGNMENT ( #3, #203, ( #130 ) ) ;
#241 = ORIENTED_EDGE ( 'NONE', *, *, #77, .T. ) ;
#242 = PERSON_AND_ORGANIZATION ( #127, #254 ) ;
#243 = VECTOR ( 'NONE', #85, 1000.000000000000000 ) ;
#244 = EDGE_LOOP ( 'NONE', ( #145, #21 ) ) ;
#245 = CALENDAR_DATE ( 2022, 7, 7 ) ;
#246 = CARTESIAN_POINT ( 'NONE',  ( 0.000000000000000000, 0.000000000000000000, 253.0000000000000000 ) ) ;
#247 = DATE_AND_TIME ( #5, #61 ) ;
#248 = PERSON_AND_ORGANIZATION_ROLE ( 'design_supplier' ) ;
#249 = EDGE_CURVE ( 'NONE', #64, #73, #65, .T. ) ;
#250 = PLANE ( 'NONE',  #218 ) ;
#251 = DIRECTION ( 'NONE',  ( 1.000000000000000000, 0.000000000000000000, 0.000000000000000000 ) ) ;
#252 = CYLINDRICAL_SURFACE ( 'NONE', #236, 5.000000000000000000 ) ;
#253 = CARTESIAN_POINT ( 'NONE',  ( 0.000000000000000000, 0.000000000000000000, 3.000000000000000000 ) ) ;
#254 = ORGANIZATION ( 'NEURÈENÝ', 'NEURÈENÝ', '' ) ;
#255 = CC_DESIGN_PERSON_AND_ORGANIZATION_ASSIGNMENT ( #242, #108, ( #56 ) ) ;
ENDSEC;
END-ISO-10303-21;
