ISO-10303-21;
HEADER;
FILE_DESCRIPTION (( 'STEP AP203' ),
    '1' );
FILE_NAME ('1cd9.STEP',
    '2022-07-07T17:40:24',
    ( '' ),
    ( '' ),
    'SwSTEP 2.0',
    'SolidWorks 2019',
    '' );
FILE_SCHEMA (( 'CONFIG_CONTROL_DESIGN' ));
ENDSEC;

DATA;
#1 = EDGE_LOOP ( 'NONE', ( #40, #93, #193, #172 ) ) ;
#2 = DIRECTION ( 'NONE',  ( 0.000000000000000000, 0.000000000000000000, 1.000000000000000000 ) ) ;
#3 = CIRCLE ( 'NONE', #50, 6.000000000000000888 ) ;
#4 = DIRECTION ( 'NONE',  ( 1.000000000000000000, 0.000000000000000000, 0.000000000000000000 ) ) ;
#5 = EDGE_LOOP ( 'NONE', ( #102, #190, #158, #39 ) ) ;
#6 = CYLINDRICAL_SURFACE ( 'NONE', #37, 6.000000000000000888 ) ;
#7 = EDGE_CURVE ( 'NONE', #114, #20, #251, .T. ) ;
#8 = DATE_TIME_ROLE ( 'creation_date' ) ;
#9 = CARTESIAN_POINT ( 'NONE',  ( 0.000000000000000000, 0.000000000000000000, 405.0000000000000000 ) ) ;
#10 = DIRECTION ( 'NONE',  ( 0.000000000000000000, 0.000000000000000000, 1.000000000000000000 ) ) ;
#11 = DIRECTION ( 'NONE',  ( -0.000000000000000000, -0.000000000000000000, -1.000000000000000000 ) ) ;
#12 = SECURITY_CLASSIFICATION_LEVEL ( 'unclassified' ) ;
#13 = PERSON_AND_ORGANIZATION ( #54, #15 ) ;
#14 = APPROVAL ( #164, 'NEURÈENÝ' ) ;
#15 = ORGANIZATION ( 'NEURÈENÝ', 'NEURÈENÝ', '' ) ;
#16 = EDGE_CURVE ( 'NONE', #83, #135, #213, .T. ) ;
#17 = LOCAL_TIME ( 19, 40, 24.00000000000000000, #46 ) ;
#18 = ORIENTED_EDGE ( 'NONE', *, *, #137, .F. ) ;
#19 = CARTESIAN_POINT ( 'NONE',  ( -3.000000000000000444, 0.000000000000000000, 405.0000000000000000 ) ) ;
#20 = VERTEX_POINT ( 'NONE', #94 ) ;
#21 = CARTESIAN_POINT ( 'NONE',  ( 6.000000000000000888, 7.347880794884120722E-16, 5.000000000000000000 ) ) ;
#22 = ORIENTED_EDGE ( 'NONE', *, *, #91, .F. ) ;
#23 = ADVANCED_FACE ( 'NONE', ( #78 ), #151, .T. ) ;
#24 = CARTESIAN_POINT ( 'NONE',  ( 6.000000000000000888, 7.347880794884120722E-16, 0.000000000000000000 ) ) ;
#25 = CALENDAR_DATE ( 2022, 7, 7 ) ;
#26 = VERTEX_POINT ( 'NONE', #173 ) ;
#27 = CYLINDRICAL_SURFACE ( 'NONE', #225, 6.000000000000000888 ) ;
#28 = CIRCLE ( 'NONE', #143, 6.000000000000000888 ) ;
#29 = CC_DESIGN_APPROVAL ( #14, ( #226 ) ) ;
#30 = CARTESIAN_POINT ( 'NONE',  ( 0.000000000000000000, 0.000000000000000000, 0.000000000000000000 ) ) ;
#31 = PLANE ( 'NONE',  #202 ) ;
#32 = APPROVAL ( #82, 'NEURÈENÝ' ) ;
#33 = APPROVAL_DATE_TIME ( #221, #107 ) ;
#34 = PERSON_AND_ORGANIZATION_ROLE ( 'design_supplier' ) ;
#35 = LOCAL_TIME ( 19, 40, 24.00000000000000000, #130 ) ;
#36 = EDGE_CURVE ( 'NONE', #59, #135, #106, .T. ) ;
#37 = AXIS2_PLACEMENT_3D ( 'NONE', #51, #182, #197 ) ;
#38 = PRODUCT_RELATED_PRODUCT_CATEGORY ( 'detail', '', ( #184 ) ) ;
#39 = ORIENTED_EDGE ( 'NONE', *, *, #16, .F. ) ;
#40 = ORIENTED_EDGE ( 'NONE', *, *, #72, .F. ) ;
#41 = AXIS2_PLACEMENT_3D ( 'NONE', #255, #229, #125 ) ;
#42 = FACE_OUTER_BOUND ( 'NONE', #5, .T. ) ;
#43 = EDGE_CURVE ( 'NONE', #20, #114, #3, .T. ) ;
#44 = ORIENTED_EDGE ( 'NONE', *, *, #156, .T. ) ;
#45 = DIRECTION ( 'NONE',  ( 0.000000000000000000, 0.000000000000000000, 1.000000000000000000 ) ) ;
#46 = COORDINATED_UNIVERSAL_TIME_OFFSET ( 1, 0, .AHEAD. ) ;
#47 = CARTESIAN_POINT ( 'NONE',  ( -3.000000000000000444, 0.000000000000000000, 405.0000000000000000 ) ) ;
#48 = CARTESIAN_POINT ( 'NONE',  ( 3.000000000000000444, 3.673940397442060361E-16, 405.0000000000000000 ) ) ;
#49 = DIRECTION ( 'NONE',  ( 1.000000000000000000, 0.000000000000000000, 0.000000000000000000 ) ) ;
#50 = AXIS2_PLACEMENT_3D ( 'NONE', #30, #119, #177 ) ;
#51 = CARTESIAN_POINT ( 'NONE',  ( 0.000000000000000000, 0.000000000000000000, 5.000000000000000000 ) ) ;
#52 = PERSON_AND_ORGANIZATION ( #54, #15 ) ;
#53 = CC_DESIGN_APPROVAL ( #32, ( #167 ) ) ;
#54 = PERSON ( 'NEURÈENÝ', 'NEURÈENÝ', 'NEURÈENÝ', ('NEURÈENÝ'), ('NEURÈENÝ'), ('NEURÈENÝ') ) ;
#55 = DIRECTION ( 'NONE',  ( -0.000000000000000000, -0.000000000000000000, -1.000000000000000000 ) ) ;
#56 = EDGE_LOOP ( 'NONE', ( #100, #154 ) ) ;
#57 = CARTESIAN_POINT ( 'NONE',  ( 0.000000000000000000, 0.000000000000000000, 405.0000000000000000 ) ) ;
#58 = AXIS2_PLACEMENT_3D ( 'NONE', #194, #214, #155 ) ;
#59 = VERTEX_POINT ( 'NONE', #136 ) ;
#60 = DIRECTION ( 'NONE',  ( -0.000000000000000000, -0.000000000000000000, -1.000000000000000000 ) ) ;
#61 = APPROVAL_DATE_TIME ( #237, #32 ) ;
#62 = CARTESIAN_POINT ( 'NONE',  ( 0.000000000000000000, 0.000000000000000000, 0.000000000000000000 ) ) ;
#63 = LINE ( 'NONE', #211, #232 ) ;
#64 = DIRECTION ( 'NONE',  ( 0.000000000000000000, 0.000000000000000000, 1.000000000000000000 ) ) ;
#65 = APPROVAL_ROLE ( '' ) ;
#66 = CIRCLE ( 'NONE', #249, 6.000000000000000888 ) ;
#67 = VECTOR ( 'NONE', #144, 1000.000000000000000 ) ;
#68 = CARTESIAN_POINT ( 'NONE',  ( 0.000000000000000000, 0.000000000000000000, 0.000000000000000000 ) ) ;
#69 = UNCERTAINTY_MEASURE_WITH_UNIT (LENGTH_MEASURE( 1.000000000000000082E-05 ), #153, 'distance_accuracy_value', 'NONE');
#70 = COORDINATED_UNIVERSAL_TIME_OFFSET ( 1, 0, .AHEAD. ) ;
#71 = AXIS2_PLACEMENT_3D ( 'NONE', #62, #227, #138 ) ;
#72 = EDGE_CURVE ( 'NONE', #118, #59, #63, .T. ) ;
#73 = SHAPE_DEFINITION_REPRESENTATION ( #185, #236 ) ;
#74 = AXIS2_PLACEMENT_3D ( 'NONE', #219, #241, #49 ) ;
#75 = LOCAL_TIME ( 19, 40, 24.00000000000000000, #70 ) ;
#76 = LOCAL_TIME ( 19, 40, 24.00000000000000000, #157 ) ;
#77 = EDGE_LOOP ( 'NONE', ( #22, #254, #252, #18 ) ) ;
#78 = FACE_OUTER_BOUND ( 'NONE', #1, .T. ) ;
#79 = CARTESIAN_POINT ( 'NONE',  ( 0.000000000000000000, 0.000000000000000000, 405.0000000000000000 ) ) ;
#80 = ORIENTED_EDGE ( 'NONE', *, *, #91, .T. ) ;
#81 = LINE ( 'NONE', #124, #67 ) ;
#82 = APPROVAL_STATUS ( 'not_yet_approved' ) ;
#83 = VERTEX_POINT ( 'NONE', #19 ) ;
#84 = FACE_BOUND ( 'NONE', #179, .T. ) ;
#85 = PERSON_AND_ORGANIZATION ( #54, #15 ) ;
#86 = CARTESIAN_POINT ( 'NONE',  ( 0.000000000000000000, 0.000000000000000000, 5.000000000000000000 ) ) ;
#87 = DIRECTION ( 'NONE',  ( 1.000000000000000000, 0.000000000000000000, -0.000000000000000000 ) ) ;
#88 = COORDINATED_UNIVERSAL_TIME_OFFSET ( 1, 0, .AHEAD. ) ;
#89 = PERSON_AND_ORGANIZATION ( #54, #15 ) ;
#90 = DATE_TIME_ROLE ( 'classification_date' ) ;
#91 = EDGE_CURVE ( 'NONE', #176, #26, #66, .T. ) ;
#92 = ADVANCED_FACE ( 'NONE', ( #96 ), #6, .T. ) ;
#93 = ORIENTED_EDGE ( 'NONE', *, *, #240, .F. ) ;
#94 = CARTESIAN_POINT ( 'NONE',  ( -6.000000000000000888, 0.000000000000000000, 0.000000000000000000 ) ) ;
#95 = APPROVAL_PERSON_ORGANIZATION ( #13, #14, #165 ) ;
#96 = FACE_OUTER_BOUND ( 'NONE', #77, .T. ) ;
#97 = EDGE_LOOP ( 'NONE', ( #233, #132 ) ) ;
#98 = DIRECTION ( 'NONE',  ( -0.000000000000000000, -0.000000000000000000, -1.000000000000000000 ) ) ;
#99 = PERSON_AND_ORGANIZATION_ROLE ( 'design_owner' ) ;
#100 = ORIENTED_EDGE ( 'NONE', *, *, #43, .F. ) ;
#101 = CARTESIAN_POINT ( 'NONE',  ( 0.000000000000000000, 0.000000000000000000, 5.000000000000000000 ) ) ;
#102 = ORIENTED_EDGE ( 'NONE', *, *, #168, .F. ) ;
#103 = CARTESIAN_POINT ( 'NONE',  ( -6.000000000000000888, 0.000000000000000000, 5.000000000000000000 ) ) ;
#104 = ADVANCED_FACE ( 'NONE', ( #161 ), #27, .T. ) ;
#105 = DIRECTION ( 'NONE',  ( 1.000000000000000000, 0.000000000000000000, -0.000000000000000000 ) ) ;
#106 = CIRCLE ( 'NONE', #58, 3.000000000000000444 ) ;
#107 = APPROVAL ( #108, 'NEURÈENÝ' ) ;
#108 = APPROVAL_STATUS ( 'not_yet_approved' ) ;
#109 = PERSON_AND_ORGANIZATION ( #54, #15 ) ;
#110 = APPROVAL_DATE_TIME ( #248, #14 ) ;
#111 = AXIS2_PLACEMENT_3D ( 'NONE', #178, #199, #4 ) ;
#112 = ADVANCED_FACE ( 'NONE', ( #42 ), #152, .T. ) ;
#113 = CC_DESIGN_PERSON_AND_ORGANIZATION_ASSIGNMENT ( #212, #243, ( #167 ) ) ;
#114 = VERTEX_POINT ( 'NONE', #24 ) ;
#115 = CIRCLE ( 'NONE', #41, 3.000000000000000444 ) ;
#116 = DIRECTION ( 'NONE',  ( 1.000000000000000000, 0.000000000000000000, 0.000000000000000000 ) ) ;
#117 = MECHANICAL_CONTEXT ( 'NONE', #175, 'mechanical' ) ;
#118 = VERTEX_POINT ( 'NONE', #48 ) ;
#119 = DIRECTION ( 'NONE',  ( 0.000000000000000000, 0.000000000000000000, 1.000000000000000000 ) ) ;
#120 = DATE_AND_TIME ( #215, #17 ) ;
#121 = ADVANCED_FACE ( 'NONE', ( #84, #191 ), #122, .T. ) ;
#122 = PLANE ( 'NONE',  #123 ) ;
#123 = AXIS2_PLACEMENT_3D ( 'NONE', #159, #2, #105 ) ;
#124 = CARTESIAN_POINT ( 'NONE',  ( 6.000000000000000888, 7.347880794884120722E-16, 5.000000000000000000 ) ) ;
#125 = DIRECTION ( 'NONE',  ( 1.000000000000000000, 0.000000000000000000, 0.000000000000000000 ) ) ;
#126 = APPLICATION_CONTEXT ( 'configuration controlled 3d designs of mechanical parts and assemblies' ) ;
#127 = APPROVAL_PERSON_ORGANIZATION ( #52, #32, #65 ) ;
#128 = APPROVAL_ROLE ( '' ) ;
#129 = CIRCLE ( 'NONE', #74, 3.000000000000000444 ) ;
#130 = COORDINATED_UNIVERSAL_TIME_OFFSET ( 1, 0, .AHEAD. ) ;
#131 = CLOSED_SHELL ( 'NONE', ( #112, #92, #104, #121, #250, #23, #209 ) ) ;
#132 = ORIENTED_EDGE ( 'NONE', *, *, #168, .T. ) ;
#133 = DIRECTION ( 'NONE',  ( 0.000000000000000000, 0.000000000000000000, 1.000000000000000000 ) ) ;
#134 = APPROVAL_PERSON_ORGANIZATION ( #85, #107, #128 ) ;
#135 = VERTEX_POINT ( 'NONE', #216 ) ;
#136 = CARTESIAN_POINT ( 'NONE',  ( 3.000000000000000444, 3.673940397442060361E-16, 5.000000000000000000 ) ) ;
#137 = EDGE_CURVE ( 'NONE', #26, #20, #139, .T. ) ;
#138 = DIRECTION ( 'NONE',  ( 1.000000000000000000, 0.000000000000000000, 0.000000000000000000 ) ) ;
#139 = LINE ( 'NONE', #103, #253 ) ;
#140 = APPLICATION_PROTOCOL_DEFINITION ( 'international standard', 'config_control_design', 1994, #175 ) ;
#141 = DIRECTION ( 'NONE',  ( 1.000000000000000000, 0.000000000000000000, 0.000000000000000000 ) ) ;
#142 = FACE_OUTER_BOUND ( 'NONE', #56, .T. ) ;
#143 = AXIS2_PLACEMENT_3D ( 'NONE', #86, #64, #141 ) ;
#144 = DIRECTION ( 'NONE',  ( -0.000000000000000000, -0.000000000000000000, -1.000000000000000000 ) ) ;
#145 = CC_DESIGN_PERSON_AND_ORGANIZATION_ASSIGNMENT ( #109, #223, ( #226 ) ) ;
#146 = MANIFOLD_SOLID_BREP ( 'Pøidat vysunutím3', #131 ) ;
#147 = DATE_AND_TIME ( #246, #218 ) ;
#148 = CC_DESIGN_SECURITY_CLASSIFICATION ( #226, ( #203 ) ) ;
#149 = CC_DESIGN_PERSON_AND_ORGANIZATION_ASSIGNMENT ( #200, #201, ( #203 ) ) ;
#150 = CIRCLE ( 'NONE', #169, 3.000000000000000444 ) ;
#151 = CYLINDRICAL_SURFACE ( 'NONE', #166, 3.000000000000000444 ) ;
#152 = CYLINDRICAL_SURFACE ( 'NONE', #217, 3.000000000000000444 ) ;
#153 =( LENGTH_UNIT ( ) NAMED_UNIT ( * ) SI_UNIT ( .MILLI., .METRE. ) );
#154 = ORIENTED_EDGE ( 'NONE', *, *, #7, .F. ) ;
#155 = DIRECTION ( 'NONE',  ( 1.000000000000000000, 0.000000000000000000, 0.000000000000000000 ) ) ;
#156 = EDGE_CURVE ( 'NONE', #26, #176, #28, .T. ) ;
#157 = COORDINATED_UNIVERSAL_TIME_OFFSET ( 1, 0, .AHEAD. ) ;
#158 = ORIENTED_EDGE ( 'NONE', *, *, #36, .T. ) ;
#159 = CARTESIAN_POINT ( 'NONE',  ( 0.000000000000000000, 0.000000000000000000, 5.000000000000000000 ) ) ;
#160 = DIRECTION ( 'NONE',  ( 1.000000000000000000, 0.000000000000000000, -0.000000000000000000 ) ) ;
#161 = FACE_OUTER_BOUND ( 'NONE', #205, .T. ) ;
#162 = FACE_OUTER_BOUND ( 'NONE', #97, .T. ) ;
#163 = EDGE_CURVE ( 'NONE', #135, #59, #115, .T. ) ;
#164 = APPROVAL_STATUS ( 'not_yet_approved' ) ;
#165 = APPROVAL_ROLE ( '' ) ;
#166 = AXIS2_PLACEMENT_3D ( 'NONE', #79, #98, #239 ) ;
#167 = PRODUCT_DEFINITION ( 'NEZNÁMÝ', '', #203, #186 ) ;
#168 = EDGE_CURVE ( 'NONE', #118, #83, #150, .T. ) ;
#169 = AXIS2_PLACEMENT_3D ( 'NONE', #57, #133, #116 ) ;
#170 = ORIENTED_EDGE ( 'NONE', *, *, #163, .F. ) ;
#171 = DIRECTION ( 'NONE',  ( -1.000000000000000000, 0.000000000000000000, 0.000000000000000000 ) ) ;
#172 = ORIENTED_EDGE ( 'NONE', *, *, #163, .T. ) ;
#173 = CARTESIAN_POINT ( 'NONE',  ( -6.000000000000000888, 0.000000000000000000, 5.000000000000000000 ) ) ;
#174 = APPLICATION_PROTOCOL_DEFINITION ( 'international standard', 'config_control_design', 1994, #126 ) ;
#175 = APPLICATION_CONTEXT ( 'configuration controlled 3d designs of mechanical parts and assemblies' ) ;
#176 = VERTEX_POINT ( 'NONE', #21 ) ;
#177 = DIRECTION ( 'NONE',  ( 1.000000000000000000, 0.000000000000000000, 0.000000000000000000 ) ) ;
#178 = CARTESIAN_POINT ( 'NONE',  ( 0.000000000000000000, 0.000000000000000000, 0.000000000000000000 ) ) ;
#179 = EDGE_LOOP ( 'NONE', ( #170, #238 ) ) ;
#180 = CARTESIAN_POINT ( 'NONE',  ( 0.000000000000000000, 0.000000000000000000, 5.000000000000000000 ) ) ;
#181 = PLANE ( 'NONE',  #208 ) ;
#182 = DIRECTION ( 'NONE',  ( -0.000000000000000000, -0.000000000000000000, -1.000000000000000000 ) ) ;
#183 = DIRECTION ( 'NONE',  ( 0.000000000000000000, 0.000000000000000000, 1.000000000000000000 ) ) ;
#184 = PRODUCT ( '1cd9', '1cd9', '', ( #117 ) ) ;
#185 = PRODUCT_DEFINITION_SHAPE ( 'NONE', 'NONE',  #167 ) ;
#186 = DESIGN_CONTEXT ( 'detailed design', #126, 'design' ) ;
#187 = CC_DESIGN_PERSON_AND_ORGANIZATION_ASSIGNMENT ( #89, #34, ( #203 ) ) ;
#188 = ORIENTED_EDGE ( 'NONE', *, *, #156, .F. ) ;
#189 = ORIENTED_EDGE ( 'NONE', *, *, #137, .T. ) ;
#190 = ORIENTED_EDGE ( 'NONE', *, *, #72, .T. ) ;
#191 = FACE_OUTER_BOUND ( 'NONE', #228, .T. ) ;
#192 = PERSON_AND_ORGANIZATION ( #54, #15 ) ;
#193 = ORIENTED_EDGE ( 'NONE', *, *, #16, .T. ) ;
#194 = CARTESIAN_POINT ( 'NONE',  ( 0.000000000000000000, 0.000000000000000000, 5.000000000000000000 ) ) ;
#195 = DIRECTION ( 'NONE',  ( -1.000000000000000000, 0.000000000000000000, 0.000000000000000000 ) ) ;
#196 =( NAMED_UNIT ( * ) PLANE_ANGLE_UNIT ( ) SI_UNIT ( $, .RADIAN. ) );
#197 = DIRECTION ( 'NONE',  ( -1.000000000000000000, 0.000000000000000000, 0.000000000000000000 ) ) ;
#198 = EDGE_CURVE ( 'NONE', #176, #114, #81, .T. ) ;
#199 = DIRECTION ( 'NONE',  ( 0.000000000000000000, 0.000000000000000000, 1.000000000000000000 ) ) ;
#200 = PERSON_AND_ORGANIZATION ( #54, #15 ) ;
#201 = PERSON_AND_ORGANIZATION_ROLE ( 'creator' ) ;
#202 = AXIS2_PLACEMENT_3D ( 'NONE', #245, #183, #160 ) ;
#203 = PRODUCT_DEFINITION_FORMATION_WITH_SPECIFIED_SOURCE ( 'LIBOVOLNÝ', '', #184, .NOT_KNOWN. ) ;
#204 = CALENDAR_DATE ( 2022, 7, 7 ) ;
#205 = EDGE_LOOP ( 'NONE', ( #210, #188, #189, #206 ) ) ;
#206 = ORIENTED_EDGE ( 'NONE', *, *, #43, .T. ) ;
#207 = DIRECTION ( 'NONE',  ( 1.000000000000000000, 0.000000000000000000, 0.000000000000000000 ) ) ;
#208 = AXIS2_PLACEMENT_3D ( 'NONE', #68, #10, #87 ) ;
#209 = ADVANCED_FACE ( 'NONE', ( #162 ), #31, .T. ) ;
#210 = ORIENTED_EDGE ( 'NONE', *, *, #198, .F. ) ;
#211 = CARTESIAN_POINT ( 'NONE',  ( 3.000000000000000444, 3.673940397442060361E-16, 405.0000000000000000 ) ) ;
#212 = PERSON_AND_ORGANIZATION ( #54, #15 ) ;
#213 = LINE ( 'NONE', #47, #244 ) ;
#214 = DIRECTION ( 'NONE',  ( 0.000000000000000000, 0.000000000000000000, 1.000000000000000000 ) ) ;
#215 = CALENDAR_DATE ( 2022, 7, 7 ) ;
#216 = CARTESIAN_POINT ( 'NONE',  ( -3.000000000000000444, 0.000000000000000000, 5.000000000000000000 ) ) ;
#217 = AXIS2_PLACEMENT_3D ( 'NONE', #9, #234, #171 ) ;
#218 = LOCAL_TIME ( 19, 40, 24.00000000000000000, #88 ) ;
#219 = CARTESIAN_POINT ( 'NONE',  ( 0.000000000000000000, 0.000000000000000000, 405.0000000000000000 ) ) ;
#220 = CC_DESIGN_PERSON_AND_ORGANIZATION_ASSIGNMENT ( #192, #99, ( #184 ) ) ;
#221 = DATE_AND_TIME ( #204, #35 ) ;
#222 = CC_DESIGN_DATE_AND_TIME_ASSIGNMENT ( #147, #90, ( #226 ) ) ;
#223 = PERSON_AND_ORGANIZATION_ROLE ( 'classification_officer' ) ;
#224 = CC_DESIGN_APPROVAL ( #107, ( #203 ) ) ;
#225 = AXIS2_PLACEMENT_3D ( 'NONE', #101, #11, #195 ) ;
#226 = SECURITY_CLASSIFICATION ( '', '', #12 ) ;
#227 = DIRECTION ( 'NONE',  ( 0.000000000000000000, 0.000000000000000000, 1.000000000000000000 ) ) ;
#228 = EDGE_LOOP ( 'NONE', ( #44, #80 ) ) ;
#229 = DIRECTION ( 'NONE',  ( 0.000000000000000000, 0.000000000000000000, 1.000000000000000000 ) ) ;
#230 = CC_DESIGN_DATE_AND_TIME_ASSIGNMENT ( #120, #8, ( #167 ) ) ;
#231 =( NAMED_UNIT ( * ) SI_UNIT ( $, .STERADIAN. ) SOLID_ANGLE_UNIT ( ) );
#232 = VECTOR ( 'NONE', #242, 1000.000000000000000 ) ;
#233 = ORIENTED_EDGE ( 'NONE', *, *, #240, .T. ) ;
#234 = DIRECTION ( 'NONE',  ( -0.000000000000000000, -0.000000000000000000, -1.000000000000000000 ) ) ;
#235 =( GEOMETRIC_REPRESENTATION_CONTEXT ( 3 ) GLOBAL_UNCERTAINTY_ASSIGNED_CONTEXT ( ( #69 ) ) GLOBAL_UNIT_ASSIGNED_CONTEXT ( ( #153, #196, #231 ) ) REPRESENTATION_CONTEXT ( 'NONE', 'WORKASPACE' ) );
#236 = ADVANCED_BREP_SHAPE_REPRESENTATION ( '1cd9', ( #146, #111 ), #235 ) ;
#237 = DATE_AND_TIME ( #25, #76 ) ;
#238 = ORIENTED_EDGE ( 'NONE', *, *, #36, .F. ) ;
#239 = DIRECTION ( 'NONE',  ( -1.000000000000000000, 0.000000000000000000, 0.000000000000000000 ) ) ;
#240 = EDGE_CURVE ( 'NONE', #83, #118, #129, .T. ) ;
#241 = DIRECTION ( 'NONE',  ( 0.000000000000000000, 0.000000000000000000, 1.000000000000000000 ) ) ;
#242 = DIRECTION ( 'NONE',  ( -0.000000000000000000, -0.000000000000000000, -1.000000000000000000 ) ) ;
#243 = PERSON_AND_ORGANIZATION_ROLE ( 'creator' ) ;
#244 = VECTOR ( 'NONE', #55, 1000.000000000000000 ) ;
#245 = CARTESIAN_POINT ( 'NONE',  ( 0.000000000000000000, 0.000000000000000000, 405.0000000000000000 ) ) ;
#246 = CALENDAR_DATE ( 2022, 7, 7 ) ;
#247 = CALENDAR_DATE ( 2022, 7, 7 ) ;
#248 = DATE_AND_TIME ( #247, #75 ) ;
#249 = AXIS2_PLACEMENT_3D ( 'NONE', #180, #45, #207 ) ;
#250 = ADVANCED_FACE ( 'NONE', ( #142 ), #181, .F. ) ;
#251 = CIRCLE ( 'NONE', #71, 6.000000000000000888 ) ;
#252 = ORIENTED_EDGE ( 'NONE', *, *, #7, .T. ) ;
#253 = VECTOR ( 'NONE', #60, 1000.000000000000000 ) ;
#254 = ORIENTED_EDGE ( 'NONE', *, *, #198, .T. ) ;
#255 = CARTESIAN_POINT ( 'NONE',  ( 0.000000000000000000, 0.000000000000000000, 5.000000000000000000 ) ) ;
ENDSEC;
END-ISO-10303-21;
