ISO-10303-21;
HEADER;
FILE_DESCRIPTION (( 'STEP AP203' ),
    '1' );
FILE_NAME ('dcbe.STEP',
    '2022-07-07T17:32:42',
    ( '' ),
    ( '' ),
    'SwSTEP 2.0',
    'SolidWorks 2019',
    '' );
FILE_SCHEMA (( 'CONFIG_CONTROL_DESIGN' ));
ENDSEC;

DATA;
#1 = ORIENTED_EDGE ( 'NONE', *, *, #142, .F. ) ;
#2 = EDGE_LOOP ( 'NONE', ( #61, #16 ) ) ;
#3 = FACE_OUTER_BOUND ( 'NONE', #200, .T. ) ;
#4 = AXIS2_PLACEMENT_3D ( 'NONE', #203, #83, #223 ) ;
#5 = ADVANCED_FACE ( 'NONE', ( #119 ), #212, .T. ) ;
#6 = ADVANCED_FACE ( 'NONE', ( #39 ), #193, .T. ) ;
#7 = DIRECTION ( 'NONE',  ( 0.000000000000000000, 0.000000000000000000, 1.000000000000000000 ) ) ;
#8 = CARTESIAN_POINT ( 'NONE',  ( 0.000000000000000000, 0.000000000000000000, 5.000000000000000000 ) ) ;
#9 = CARTESIAN_POINT ( 'NONE',  ( 0.000000000000000000, 0.000000000000000000, 5.000000000000000000 ) ) ;
#10 = DIRECTION ( 'NONE',  ( -0.000000000000000000, -0.000000000000000000, -1.000000000000000000 ) ) ;
#11 = DIRECTION ( 'NONE',  ( -1.000000000000000000, 0.000000000000000000, 0.000000000000000000 ) ) ;
#12 = APPROVAL_STATUS ( 'not_yet_approved' ) ;
#13 = DIRECTION ( 'NONE',  ( 0.000000000000000000, 0.000000000000000000, 1.000000000000000000 ) ) ;
#14 = DIRECTION ( 'NONE',  ( -0.000000000000000000, -0.000000000000000000, -1.000000000000000000 ) ) ;
#15 = COORDINATED_UNIVERSAL_TIME_OFFSET ( 1, 0, .AHEAD. ) ;
#16 = ORIENTED_EDGE ( 'NONE', *, *, #142, .T. ) ;
#17 = APPLICATION_PROTOCOL_DEFINITION ( 'international standard', 'config_control_design', 1994, #236 ) ;
#18 = DESIGN_CONTEXT ( 'detailed design', #236, 'design' ) ;
#19 = COORDINATED_UNIVERSAL_TIME_OFFSET ( 1, 0, .AHEAD. ) ;
#20 = AXIS2_PLACEMENT_3D ( 'NONE', #70, #7, #245 ) ;
#21 = EDGE_CURVE ( 'NONE', #46, #144, #254, .T. ) ;
#22 = EDGE_CURVE ( 'NONE', #63, #144, #76, .T. ) ;
#23 = VECTOR ( 'NONE', #86, 1000.000000000000000 ) ;
#24 = ORIENTED_EDGE ( 'NONE', *, *, #241, .F. ) ;
#25 = CIRCLE ( 'NONE', #195, 4.000000000000000000 ) ;
#26 = EDGE_LOOP ( 'NONE', ( #100, #109 ) ) ;
#27 = EDGE_CURVE ( 'NONE', #63, #143, #255, .T. ) ;
#28 = DIRECTION ( 'NONE',  ( 0.000000000000000000, 0.000000000000000000, 1.000000000000000000 ) ) ;
#29 = DIRECTION ( 'NONE',  ( -0.000000000000000000, -0.000000000000000000, -1.000000000000000000 ) ) ;
#30 = PLANE ( 'NONE',  #220 ) ;
#31 = ORIENTED_EDGE ( 'NONE', *, *, #117, .F. ) ;
#32 = UNCERTAINTY_MEASURE_WITH_UNIT (LENGTH_MEASURE( 1.000000000000000082E-05 ), #221, 'distance_accuracy_value', 'NONE');
#33 = CALENDAR_DATE ( 2022, 7, 7 ) ;
#34 = CARTESIAN_POINT ( 'NONE',  ( 0.000000000000000000, 0.000000000000000000, 405.0000000000000000 ) ) ;
#35 = ORIENTED_EDGE ( 'NONE', *, *, #45, .T. ) ;
#36 = DATE_AND_TIME ( #96, #97 ) ;
#37 = AXIS2_PLACEMENT_3D ( 'NONE', #135, #52, #131 ) ;
#38 = CARTESIAN_POINT ( 'NONE',  ( 0.000000000000000000, 0.000000000000000000, 405.0000000000000000 ) ) ;
#39 = FACE_OUTER_BOUND ( 'NONE', #44, .T. ) ;
#40 = PERSON_AND_ORGANIZATION ( #177, #209 ) ;
#41 = VERTEX_POINT ( 'NONE', #230 ) ;
#42 = APPROVAL_STATUS ( 'not_yet_approved' ) ;
#43 = VECTOR ( 'NONE', #14, 1000.000000000000000 ) ;
#44 = EDGE_LOOP ( 'NONE', ( #101, #249, #213, #106 ) ) ;
#45 = EDGE_CURVE ( 'NONE', #144, #46, #57, .T. ) ;
#46 = VERTEX_POINT ( 'NONE', #250 ) ;
#47 = CLOSED_SHELL ( 'NONE', ( #6, #199, #5, #192, #161, #226, #196 ) ) ;
#48 = LOCAL_TIME ( 19, 32, 42.00000000000000000, #73 ) ;
#49 = PRODUCT_RELATED_PRODUCT_CATEGORY ( 'detail', '', ( #126 ) ) ;
#50 = FACE_OUTER_BOUND ( 'NONE', #51, .T. ) ;
#51 = EDGE_LOOP ( 'NONE', ( #243, #160 ) ) ;
#52 = DIRECTION ( 'NONE',  ( 0.000000000000000000, 0.000000000000000000, 1.000000000000000000 ) ) ;
#53 = DIRECTION ( 'NONE',  ( 0.000000000000000000, 0.000000000000000000, 1.000000000000000000 ) ) ;
#54 = DATE_AND_TIME ( #185, #48 ) ;
#55 = CARTESIAN_POINT ( 'NONE',  ( 0.000000000000000000, 0.000000000000000000, 0.000000000000000000 ) ) ;
#56 = PERSON_AND_ORGANIZATION ( #177, #209 ) ;
#57 = CIRCLE ( 'NONE', #136, 4.000000000000000000 ) ;
#58 = DIRECTION ( 'NONE',  ( 0.000000000000000000, 0.000000000000000000, 1.000000000000000000 ) ) ;
#59 = EDGE_CURVE ( 'NONE', #41, #87, #79, .T. ) ;
#60 = SHAPE_DEFINITION_REPRESENTATION ( #107, #139 ) ;
#61 = ORIENTED_EDGE ( 'NONE', *, *, #117, .T. ) ;
#62 = LOCAL_TIME ( 19, 32, 42.00000000000000000, #208 ) ;
#63 = VERTEX_POINT ( 'NONE', #110 ) ;
#64 = CIRCLE ( 'NONE', #4, 7.000000000000000000 ) ;
#65 = AXIS2_PLACEMENT_3D ( 'NONE', #9, #150, #205 ) ;
#66 = MECHANICAL_CONTEXT ( 'NONE', #171, 'mechanical' ) ;
#67 = CARTESIAN_POINT ( 'NONE',  ( 7.000000000000000000, 8.572527594031473190E-16, 5.000000000000000000 ) ) ;
#68 = ORIENTED_EDGE ( 'NONE', *, *, #179, .T. ) ;
#69 = CARTESIAN_POINT ( 'NONE',  ( -4.000000000000000000, 0.000000000000000000, 405.0000000000000000 ) ) ;
#70 = CARTESIAN_POINT ( 'NONE',  ( 0.000000000000000000, 0.000000000000000000, 0.000000000000000000 ) ) ;
#71 = PERSON_AND_ORGANIZATION_ROLE ( 'design_supplier' ) ;
#72 = CARTESIAN_POINT ( 'NONE',  ( -4.000000000000000000, 0.000000000000000000, 5.000000000000000000 ) ) ;
#73 = COORDINATED_UNIVERSAL_TIME_OFFSET ( 1, 0, .AHEAD. ) ;
#74 = VERTEX_POINT ( 'NONE', #184 ) ;
#75 = EDGE_CURVE ( 'NONE', #143, #63, #25, .T. ) ;
#76 = LINE ( 'NONE', #69, #43 ) ;
#77 = PERSON_AND_ORGANIZATION_ROLE ( 'classification_officer' ) ;
#78 = APPROVAL_PERSON_ORGANIZATION ( #132, #123, #173 ) ;
#79 = CIRCLE ( 'NONE', #37, 7.000000000000000000 ) ;
#80 = CC_DESIGN_PERSON_AND_ORGANIZATION_ASSIGNMENT ( #95, #71, ( #141 ) ) ;
#81 = CC_DESIGN_PERSON_AND_ORGANIZATION_ASSIGNMENT ( #194, #77, ( #149 ) ) ;
#82 = CIRCLE ( 'NONE', #112, 7.000000000000000000 ) ;
#83 = DIRECTION ( 'NONE',  ( 0.000000000000000000, 0.000000000000000000, 1.000000000000000000 ) ) ;
#84 = AXIS2_PLACEMENT_3D ( 'NONE', #55, #113, #85 ) ;
#85 = DIRECTION ( 'NONE',  ( 1.000000000000000000, 0.000000000000000000, -0.000000000000000000 ) ) ;
#86 = DIRECTION ( 'NONE',  ( -0.000000000000000000, -0.000000000000000000, -1.000000000000000000 ) ) ;
#87 = VERTEX_POINT ( 'NONE', #246 ) ;
#88 = FACE_OUTER_BOUND ( 'NONE', #211, .T. ) ;
#89 = CARTESIAN_POINT ( 'NONE',  ( 0.000000000000000000, 0.000000000000000000, 405.0000000000000000 ) ) ;
#90 = CALENDAR_DATE ( 2022, 7, 7 ) ;
#91 = EDGE_LOOP ( 'NONE', ( #155, #237 ) ) ;
#92 = DIRECTION ( 'NONE',  ( -0.000000000000000000, -0.000000000000000000, -1.000000000000000000 ) ) ;
#93 = PRODUCT_DEFINITION ( 'NEZNÁMÝ', '', #141, #18 ) ;
#94 = DIRECTION ( 'NONE',  ( 1.000000000000000000, 0.000000000000000000, 0.000000000000000000 ) ) ;
#95 = PERSON_AND_ORGANIZATION ( #177, #209 ) ;
#96 = CALENDAR_DATE ( 2022, 7, 7 ) ;
#97 = LOCAL_TIME ( 19, 32, 42.00000000000000000, #19 ) ;
#98 = CC_DESIGN_APPROVAL ( #123, ( #93 ) ) ;
#99 = APPROVAL_PERSON_ORGANIZATION ( #140, #175, #121 ) ;
#100 = ORIENTED_EDGE ( 'NONE', *, *, #59, .F. ) ;
#101 = ORIENTED_EDGE ( 'NONE', *, *, #75, .F. ) ;
#102 = ORIENTED_EDGE ( 'NONE', *, *, #124, .T. ) ;
#103 = DIRECTION ( 'NONE',  ( 1.000000000000000000, 0.000000000000000000, -0.000000000000000000 ) ) ;
#104 = APPROVAL ( #42, 'NEURÈENÝ' ) ;
#105 = CARTESIAN_POINT ( 'NONE',  ( 0.000000000000000000, 0.000000000000000000, 405.0000000000000000 ) ) ;
#106 = ORIENTED_EDGE ( 'NONE', *, *, #22, .F. ) ;
#107 = PRODUCT_DEFINITION_SHAPE ( 'NONE', 'NONE',  #93 ) ;
#108 = DIRECTION ( 'NONE',  ( -1.000000000000000000, 0.000000000000000000, 0.000000000000000000 ) ) ;
#109 = ORIENTED_EDGE ( 'NONE', *, *, #179, .F. ) ;
#110 = CARTESIAN_POINT ( 'NONE',  ( -4.000000000000000000, 0.000000000000000000, 405.0000000000000000 ) ) ;
#111 = PERSON_AND_ORGANIZATION_ROLE ( 'creator' ) ;
#112 = AXIS2_PLACEMENT_3D ( 'NONE', #152, #53, #188 ) ;
#113 = DIRECTION ( 'NONE',  ( 0.000000000000000000, 0.000000000000000000, 1.000000000000000000 ) ) ;
#114 = CARTESIAN_POINT ( 'NONE',  ( 0.000000000000000000, 0.000000000000000000, 5.000000000000000000 ) ) ;
#115 = AXIS2_PLACEMENT_3D ( 'NONE', #169, #10, #108 ) ;
#116 = APPROVAL_DATE_TIME ( #36, #104 ) ;
#117 = EDGE_CURVE ( 'NONE', #197, #74, #216, .T. ) ;
#118 = DIRECTION ( 'NONE',  ( 1.000000000000000000, 0.000000000000000000, 0.000000000000000000 ) ) ;
#119 = FACE_OUTER_BOUND ( 'NONE', #172, .T. ) ;
#120 = DATE_AND_TIME ( #90, #202 ) ;
#121 = APPROVAL_ROLE ( '' ) ;
#122 = CC_DESIGN_APPROVAL ( #175, ( #141 ) ) ;
#123 = APPROVAL ( #206, 'NEURÈENÝ' ) ;
#124 = EDGE_CURVE ( 'NONE', #197, #41, #170, .T. ) ;
#125 = ORIENTED_EDGE ( 'NONE', *, *, #27, .F. ) ;
#126 = PRODUCT ( 'dcbe', 'dcbe', '', ( #66 ) ) ;
#127 =( GEOMETRIC_REPRESENTATION_CONTEXT ( 3 ) GLOBAL_UNCERTAINTY_ASSIGNED_CONTEXT ( ( #32 ) ) GLOBAL_UNIT_ASSIGNED_CONTEXT ( ( #221, #130, #182 ) ) REPRESENTATION_CONTEXT ( 'NONE', 'WORKASPACE' ) );
#128 = CYLINDRICAL_SURFACE ( 'NONE', #115, 7.000000000000000000 ) ;
#129 = FACE_OUTER_BOUND ( 'NONE', #2, .T. ) ;
#130 =( NAMED_UNIT ( * ) PLANE_ANGLE_UNIT ( ) SI_UNIT ( $, .RADIAN. ) );
#131 = DIRECTION ( 'NONE',  ( 1.000000000000000000, 0.000000000000000000, 0.000000000000000000 ) ) ;
#132 = PERSON_AND_ORGANIZATION ( #177, #209 ) ;
#133 = DIRECTION ( 'NONE',  ( -0.000000000000000000, -0.000000000000000000, -1.000000000000000000 ) ) ;
#134 = APPROVAL_DATE_TIME ( #54, #175 ) ;
#135 = CARTESIAN_POINT ( 'NONE',  ( 0.000000000000000000, 0.000000000000000000, 0.000000000000000000 ) ) ;
#136 = AXIS2_PLACEMENT_3D ( 'NONE', #114, #58, #222 ) ;
#137 = CALENDAR_DATE ( 2022, 7, 7 ) ;
#138 = CARTESIAN_POINT ( 'NONE',  ( 0.000000000000000000, 0.000000000000000000, 5.000000000000000000 ) ) ;
#139 = ADVANCED_BREP_SHAPE_REPRESENTATION ( 'dcbe', ( #215, #20 ), #127 ) ;
#140 = PERSON_AND_ORGANIZATION ( #177, #209 ) ;
#141 = PRODUCT_DEFINITION_FORMATION_WITH_SPECIFIED_SOURCE ( 'LIBOVOLNÝ', '', #126, .NOT_KNOWN. ) ;
#142 = EDGE_CURVE ( 'NONE', #74, #197, #82, .T. ) ;
#143 = VERTEX_POINT ( 'NONE', #210 ) ;
#144 = VERTEX_POINT ( 'NONE', #72 ) ;
#145 = VECTOR ( 'NONE', #133, 1000.000000000000000 ) ;
#146 = DIRECTION ( 'NONE',  ( 1.000000000000000000, 0.000000000000000000, -0.000000000000000000 ) ) ;
#147 = FACE_BOUND ( 'NONE', #91, .T. ) ;
#148 = CARTESIAN_POINT ( 'NONE',  ( 4.000000000000000000, 4.898587196589412829E-16, 405.0000000000000000 ) ) ;
#149 = SECURITY_CLASSIFICATION ( '', '', #253 ) ;
#150 = DIRECTION ( 'NONE',  ( 0.000000000000000000, 0.000000000000000000, 1.000000000000000000 ) ) ;
#151 = LINE ( 'NONE', #148, #23 ) ;
#152 = CARTESIAN_POINT ( 'NONE',  ( 0.000000000000000000, 0.000000000000000000, 5.000000000000000000 ) ) ;
#153 = DATE_AND_TIME ( #137, #62 ) ;
#154 = FACE_OUTER_BOUND ( 'NONE', #26, .T. ) ;
#155 = ORIENTED_EDGE ( 'NONE', *, *, #45, .F. ) ;
#156 = AXIS2_PLACEMENT_3D ( 'NONE', #138, #207, #167 ) ;
#157 = DATE_TIME_ROLE ( 'classification_date' ) ;
#158 = APPROVAL_DATE_TIME ( #191, #123 ) ;
#159 = CC_DESIGN_APPROVAL ( #104, ( #149 ) ) ;
#160 = ORIENTED_EDGE ( 'NONE', *, *, #75, .T. ) ;
#161 = ADVANCED_FACE ( 'NONE', ( #154 ), #227, .F. ) ;
#162 = CARTESIAN_POINT ( 'NONE',  ( -7.000000000000000000, 0.000000000000000000, 5.000000000000000000 ) ) ;
#163 = LINE ( 'NONE', #67, #176 ) ;
#164 = PLANE ( 'NONE',  #229 ) ;
#165 = DIRECTION ( 'NONE',  ( 0.000000000000000000, 0.000000000000000000, 1.000000000000000000 ) ) ;
#166 = AXIS2_PLACEMENT_3D ( 'NONE', #105, #180, #242 ) ;
#167 = DIRECTION ( 'NONE',  ( 1.000000000000000000, 0.000000000000000000, 0.000000000000000000 ) ) ;
#168 = PERSON_AND_ORGANIZATION_ROLE ( 'creator' ) ;
#169 = CARTESIAN_POINT ( 'NONE',  ( 0.000000000000000000, 0.000000000000000000, 5.000000000000000000 ) ) ;
#170 = LINE ( 'NONE', #224, #145 ) ;
#171 = APPLICATION_CONTEXT ( 'configuration controlled 3d designs of mechanical parts and assemblies' ) ;
#172 = EDGE_LOOP ( 'NONE', ( #240, #31, #102, #183 ) ) ;
#173 = APPROVAL_ROLE ( '' ) ;
#174 = CC_DESIGN_DATE_AND_TIME_ASSIGNMENT ( #153, #157, ( #149 ) ) ;
#175 = APPROVAL ( #12, 'NEURÈENÝ' ) ;
#176 = VECTOR ( 'NONE', #186, 1000.000000000000000 ) ;
#177 = PERSON ( 'NEURÈENÝ', 'NEURÈENÝ', 'NEURÈENÝ', ('NEURÈENÝ'), ('NEURÈENÝ'), ('NEURÈENÝ') ) ;
#178 = APPROVAL_PERSON_ORGANIZATION ( #40, #104, #231 ) ;
#179 = EDGE_CURVE ( 'NONE', #87, #41, #64, .T. ) ;
#180 = DIRECTION ( 'NONE',  ( -0.000000000000000000, -0.000000000000000000, -1.000000000000000000 ) ) ;
#181 = CARTESIAN_POINT ( 'NONE',  ( 0.000000000000000000, 0.000000000000000000, 5.000000000000000000 ) ) ;
#182 =( NAMED_UNIT ( * ) SI_UNIT ( $, .STERADIAN. ) SOLID_ANGLE_UNIT ( ) );
#183 = ORIENTED_EDGE ( 'NONE', *, *, #59, .T. ) ;
#184 = CARTESIAN_POINT ( 'NONE',  ( 7.000000000000000000, 8.572527594031473190E-16, 5.000000000000000000 ) ) ;
#185 = CALENDAR_DATE ( 2022, 7, 7 ) ;
#186 = DIRECTION ( 'NONE',  ( -0.000000000000000000, -0.000000000000000000, -1.000000000000000000 ) ) ;
#187 = ORIENTED_EDGE ( 'NONE', *, *, #22, .T. ) ;
#188 = DIRECTION ( 'NONE',  ( 1.000000000000000000, 0.000000000000000000, 0.000000000000000000 ) ) ;
#189 = COORDINATED_UNIVERSAL_TIME_OFFSET ( 1, 0, .AHEAD. ) ;
#190 = DIRECTION ( 'NONE',  ( 0.000000000000000000, 0.000000000000000000, 1.000000000000000000 ) ) ;
#191 = DATE_AND_TIME ( #33, #217 ) ;
#192 = ADVANCED_FACE ( 'NONE', ( #147, #129 ), #30, .T. ) ;
#193 = CYLINDRICAL_SURFACE ( 'NONE', #233, 4.000000000000000000 ) ;
#194 = PERSON_AND_ORGANIZATION ( #177, #209 ) ;
#195 = AXIS2_PLACEMENT_3D ( 'NONE', #89, #190, #94 ) ;
#196 = ADVANCED_FACE ( 'NONE', ( #50 ), #164, .T. ) ;
#197 = VERTEX_POINT ( 'NONE', #162 ) ;
#198 = CC_DESIGN_PERSON_AND_ORGANIZATION_ASSIGNMENT ( #228, #168, ( #141 ) ) ;
#199 = ADVANCED_FACE ( 'NONE', ( #88 ), #128, .T. ) ;
#200 = EDGE_LOOP ( 'NONE', ( #24, #125, #187, #35 ) ) ;
#201 = APPLICATION_PROTOCOL_DEFINITION ( 'international standard', 'config_control_design', 1994, #171 ) ;
#202 = LOCAL_TIME ( 19, 32, 42.00000000000000000, #15 ) ;
#203 = CARTESIAN_POINT ( 'NONE',  ( 0.000000000000000000, 0.000000000000000000, 0.000000000000000000 ) ) ;
#204 = CARTESIAN_POINT ( 'NONE',  ( 0.000000000000000000, 0.000000000000000000, 405.0000000000000000 ) ) ;
#205 = DIRECTION ( 'NONE',  ( 1.000000000000000000, 0.000000000000000000, 0.000000000000000000 ) ) ;
#206 = APPROVAL_STATUS ( 'not_yet_approved' ) ;
#207 = DIRECTION ( 'NONE',  ( 0.000000000000000000, 0.000000000000000000, 1.000000000000000000 ) ) ;
#208 = COORDINATED_UNIVERSAL_TIME_OFFSET ( 1, 0, .AHEAD. ) ;
#209 = ORGANIZATION ( 'NEURÈENÝ', 'NEURÈENÝ', '' ) ;
#210 = CARTESIAN_POINT ( 'NONE',  ( 4.000000000000000000, 4.898587196589412829E-16, 405.0000000000000000 ) ) ;
#211 = EDGE_LOOP ( 'NONE', ( #1, #232, #68, #218 ) ) ;
#212 = CYLINDRICAL_SURFACE ( 'NONE', #238, 7.000000000000000000 ) ;
#213 = ORIENTED_EDGE ( 'NONE', *, *, #21, .T. ) ;
#214 = CC_DESIGN_PERSON_AND_ORGANIZATION_ASSIGNMENT ( #56, #111, ( #93 ) ) ;
#215 = MANIFOLD_SOLID_BREP ( 'Pøidat vysunutím3', #47 ) ;
#216 = CIRCLE ( 'NONE', #156, 7.000000000000000000 ) ;
#217 = LOCAL_TIME ( 19, 32, 42.00000000000000000, #189 ) ;
#218 = ORIENTED_EDGE ( 'NONE', *, *, #124, .F. ) ;
#219 = CC_DESIGN_PERSON_AND_ORGANIZATION_ASSIGNMENT ( #225, #247, ( #126 ) ) ;
#220 = AXIS2_PLACEMENT_3D ( 'NONE', #8, #13, #103 ) ;
#221 =( LENGTH_UNIT ( ) NAMED_UNIT ( * ) SI_UNIT ( .MILLI., .METRE. ) );
#222 = DIRECTION ( 'NONE',  ( 1.000000000000000000, 0.000000000000000000, 0.000000000000000000 ) ) ;
#223 = DIRECTION ( 'NONE',  ( 1.000000000000000000, 0.000000000000000000, 0.000000000000000000 ) ) ;
#224 = CARTESIAN_POINT ( 'NONE',  ( -7.000000000000000000, 0.000000000000000000, 5.000000000000000000 ) ) ;
#225 = PERSON_AND_ORGANIZATION ( #177, #209 ) ;
#226 = ADVANCED_FACE ( 'NONE', ( #3 ), #239, .T. ) ;
#227 = PLANE ( 'NONE',  #84 ) ;
#228 = PERSON_AND_ORGANIZATION ( #177, #209 ) ;
#229 = AXIS2_PLACEMENT_3D ( 'NONE', #34, #28, #146 ) ;
#230 = CARTESIAN_POINT ( 'NONE',  ( -7.000000000000000000, 0.000000000000000000, 0.000000000000000000 ) ) ;
#231 = APPROVAL_ROLE ( '' ) ;
#232 = ORIENTED_EDGE ( 'NONE', *, *, #234, .T. ) ;
#233 = AXIS2_PLACEMENT_3D ( 'NONE', #38, #29, #11 ) ;
#234 = EDGE_CURVE ( 'NONE', #74, #87, #163, .T. ) ;
#235 = CC_DESIGN_SECURITY_CLASSIFICATION ( #149, ( #141 ) ) ;
#236 = APPLICATION_CONTEXT ( 'configuration controlled 3d designs of mechanical parts and assemblies' ) ;
#237 = ORIENTED_EDGE ( 'NONE', *, *, #21, .F. ) ;
#238 = AXIS2_PLACEMENT_3D ( 'NONE', #181, #92, #252 ) ;
#239 = CYLINDRICAL_SURFACE ( 'NONE', #166, 4.000000000000000000 ) ;
#240 = ORIENTED_EDGE ( 'NONE', *, *, #234, .F. ) ;
#241 = EDGE_CURVE ( 'NONE', #143, #46, #151, .T. ) ;
#242 = DIRECTION ( 'NONE',  ( -1.000000000000000000, 0.000000000000000000, 0.000000000000000000 ) ) ;
#243 = ORIENTED_EDGE ( 'NONE', *, *, #27, .T. ) ;
#244 = AXIS2_PLACEMENT_3D ( 'NONE', #204, #165, #118 ) ;
#245 = DIRECTION ( 'NONE',  ( 1.000000000000000000, 0.000000000000000000, 0.000000000000000000 ) ) ;
#246 = CARTESIAN_POINT ( 'NONE',  ( 7.000000000000000000, 8.572527594031473190E-16, 0.000000000000000000 ) ) ;
#247 = PERSON_AND_ORGANIZATION_ROLE ( 'design_owner' ) ;
#248 = CC_DESIGN_DATE_AND_TIME_ASSIGNMENT ( #120, #251, ( #93 ) ) ;
#249 = ORIENTED_EDGE ( 'NONE', *, *, #241, .T. ) ;
#250 = CARTESIAN_POINT ( 'NONE',  ( 4.000000000000000000, 4.898587196589412829E-16, 5.000000000000000000 ) ) ;
#251 = DATE_TIME_ROLE ( 'creation_date' ) ;
#252 = DIRECTION ( 'NONE',  ( -1.000000000000000000, 0.000000000000000000, 0.000000000000000000 ) ) ;
#253 = SECURITY_CLASSIFICATION_LEVEL ( 'unclassified' ) ;
#254 = CIRCLE ( 'NONE', #65, 4.000000000000000000 ) ;
#255 = CIRCLE ( 'NONE', #244, 4.000000000000000000 ) ;
ENDSEC;
END-ISO-10303-21;
