ISO-10303-21;
HEADER;
FILE_DESCRIPTION (( 'STEP AP203' ),
    '1' );
FILE_NAME ('b928.STEP',
    '2022-07-07T17:55:14',
    ( '' ),
    ( '' ),
    'SwSTEP 2.0',
    'SolidWorks 2019',
    '' );
FILE_SCHEMA (( 'CONFIG_CONTROL_DESIGN' ));
ENDSEC;

DATA;
#1 = LOCAL_TIME ( 19, 55, 14.00000000000000000, #42 ) ;
#2 = DATE_AND_TIME ( #182, #1 ) ;
#3 = CARTESIAN_POINT ( 'NONE',  ( 3.000000000000000444, 3.673940397442060361E-16, 3.000000000000000000 ) ) ;
#4 = APPROVAL_STATUS ( 'not_yet_approved' ) ;
#5 = APPROVAL_DATE_TIME ( #24, #56 ) ;
#6 = DIRECTION ( 'NONE',  ( -0.000000000000000000, -0.000000000000000000, -1.000000000000000000 ) ) ;
#7 = DIRECTION ( 'NONE',  ( 1.000000000000000000, 0.000000000000000000, 0.000000000000000000 ) ) ;
#8 = AXIS2_PLACEMENT_3D ( 'NONE', #31, #50, #236 ) ;
#9 = PRODUCT_DEFINITION_SHAPE ( 'NONE', 'NONE',  #106 ) ;
#10 = EDGE_LOOP ( 'NONE', ( #177, #139 ) ) ;
#11 = CARTESIAN_POINT ( 'NONE',  ( 0.000000000000000000, 0.000000000000000000, 163.0000000000000000 ) ) ;
#12 = DIRECTION ( 'NONE',  ( 1.000000000000000000, 0.000000000000000000, 0.000000000000000000 ) ) ;
#13 = DIRECTION ( 'NONE',  ( -0.000000000000000000, -0.000000000000000000, -1.000000000000000000 ) ) ;
#14 = LINE ( 'NONE', #251, #141 ) ;
#15 = ORIENTED_EDGE ( 'NONE', *, *, #110, .T. ) ;
#16 = CIRCLE ( 'NONE', #158, 1.600000000000000089 ) ;
#17 = EDGE_CURVE ( 'NONE', #154, #156, #254, .T. ) ;
#18 = COORDINATED_UNIVERSAL_TIME_OFFSET ( 1, 0, .AHEAD. ) ;
#19 = FACE_OUTER_BOUND ( 'NONE', #189, .T. ) ;
#20 = FACE_OUTER_BOUND ( 'NONE', #212, .T. ) ;
#21 = PERSON_AND_ORGANIZATION ( #201, #78 ) ;
#22 = CARTESIAN_POINT ( 'NONE',  ( 1.600000000000000089, 1.959434878635765230E-16, 3.000000000000000000 ) ) ;
#23 = PRODUCT ( 'b928', 'b928', '', ( #146 ) ) ;
#24 = DATE_AND_TIME ( #66, #144 ) ;
#25 = CARTESIAN_POINT ( 'NONE',  ( 0.000000000000000000, 0.000000000000000000, 0.000000000000000000 ) ) ;
#26 = CC_DESIGN_APPROVAL ( #56, ( #221 ) ) ;
#27 = CARTESIAN_POINT ( 'NONE',  ( -3.000000000000000444, 0.000000000000000000, 3.000000000000000000 ) ) ;
#28 = EDGE_CURVE ( 'NONE', #156, #154, #230, .T. ) ;
#29 = ORIENTED_EDGE ( 'NONE', *, *, #17, .T. ) ;
#30 = AXIS2_PLACEMENT_3D ( 'NONE', #244, #173, #99 ) ;
#31 = CARTESIAN_POINT ( 'NONE',  ( 0.000000000000000000, 0.000000000000000000, 3.000000000000000000 ) ) ;
#32 = DIRECTION ( 'NONE',  ( 1.000000000000000000, 0.000000000000000000, -0.000000000000000000 ) ) ;
#33 = VERTEX_POINT ( 'NONE', #92 ) ;
#34 = ORIENTED_EDGE ( 'NONE', *, *, #181, .F. ) ;
#35 = EDGE_CURVE ( 'NONE', #118, #51, #131, .T. ) ;
#36 = AXIS2_PLACEMENT_3D ( 'NONE', #85, #233, #137 ) ;
#37 = DESIGN_CONTEXT ( 'detailed design', #38, 'design' ) ;
#38 = APPLICATION_CONTEXT ( 'configuration controlled 3d designs of mechanical parts and assemblies' ) ;
#39 = AXIS2_PLACEMENT_3D ( 'NONE', #228, #129, #32 ) ;
#40 = CARTESIAN_POINT ( 'NONE',  ( 0.000000000000000000, 0.000000000000000000, 3.000000000000000000 ) ) ;
#41 = DATE_AND_TIME ( #164, #121 ) ;
#42 = COORDINATED_UNIVERSAL_TIME_OFFSET ( 1, 0, .AHEAD. ) ;
#43 = EDGE_CURVE ( 'NONE', #118, #113, #14, .T. ) ;
#44 = CARTESIAN_POINT ( 'NONE',  ( 0.000000000000000000, 0.000000000000000000, 163.0000000000000000 ) ) ;
#45 = DIRECTION ( 'NONE',  ( -1.000000000000000000, 0.000000000000000000, 0.000000000000000000 ) ) ;
#46 = PERSON_AND_ORGANIZATION ( #201, #78 ) ;
#47 = CARTESIAN_POINT ( 'NONE',  ( 0.000000000000000000, 0.000000000000000000, 163.0000000000000000 ) ) ;
#48 = CARTESIAN_POINT ( 'NONE',  ( -1.600000000000000089, 0.000000000000000000, 163.0000000000000000 ) ) ;
#49 = AXIS2_PLACEMENT_3D ( 'NONE', #44, #225, #122 ) ;
#50 = DIRECTION ( 'NONE',  ( 0.000000000000000000, 0.000000000000000000, 1.000000000000000000 ) ) ;
#51 = VERTEX_POINT ( 'NONE', #159 ) ;
#52 = DIRECTION ( 'NONE',  ( 1.000000000000000000, 0.000000000000000000, -0.000000000000000000 ) ) ;
#53 = CC_DESIGN_APPROVAL ( #135, ( #106 ) ) ;
#54 = ORIENTED_EDGE ( 'NONE', *, *, #74, .T. ) ;
#55 = FACE_OUTER_BOUND ( 'NONE', #134, .T. ) ;
#56 = APPROVAL ( #84, 'NEURÈENÝ' ) ;
#57 = ORIENTED_EDGE ( 'NONE', *, *, #120, .F. ) ;
#58 = COORDINATED_UNIVERSAL_TIME_OFFSET ( 1, 0, .AHEAD. ) ;
#59 = PRODUCT_DEFINITION_FORMATION_WITH_SPECIFIED_SOURCE ( 'LIBOVOLNÝ', '', #23, .NOT_KNOWN. ) ;
#60 = DIRECTION ( 'NONE',  ( -1.000000000000000000, 0.000000000000000000, 0.000000000000000000 ) ) ;
#61 = DIRECTION ( 'NONE',  ( 1.000000000000000000, 0.000000000000000000, 0.000000000000000000 ) ) ;
#62 = LOCAL_TIME ( 19, 55, 14.00000000000000000, #18 ) ;
#63 = SECURITY_CLASSIFICATION_LEVEL ( 'unclassified' ) ;
#64 = DIRECTION ( 'NONE',  ( 1.000000000000000000, 0.000000000000000000, 0.000000000000000000 ) ) ;
#65 = ADVANCED_FACE ( 'NONE', ( #55 ), #185, .F. ) ;
#66 = CALENDAR_DATE ( 2022, 7, 7 ) ;
#67 = CARTESIAN_POINT ( 'NONE',  ( 3.000000000000000444, 3.673940397442060361E-16, 3.000000000000000000 ) ) ;
#68 = APPROVAL_ROLE ( '' ) ;
#69 = ORIENTED_EDGE ( 'NONE', *, *, #116, .T. ) ;
#70 = DIRECTION ( 'NONE',  ( 0.000000000000000000, 0.000000000000000000, 1.000000000000000000 ) ) ;
#71 = ORIENTED_EDGE ( 'NONE', *, *, #120, .T. ) ;
#72 = AXIS2_PLACEMENT_3D ( 'NONE', #40, #242, #60 ) ;
#73 = DIRECTION ( 'NONE',  ( -0.000000000000000000, -0.000000000000000000, -1.000000000000000000 ) ) ;
#74 = EDGE_CURVE ( 'NONE', #154, #33, #155, .T. ) ;
#75 = EDGE_LOOP ( 'NONE', ( #194, #249, #71, #172 ) ) ;
#76 = CIRCLE ( 'NONE', #36, 1.600000000000000089 ) ;
#77 = PERSON_AND_ORGANIZATION ( #201, #78 ) ;
#78 = ORGANIZATION ( 'NEURÈENÝ', 'NEURÈENÝ', '' ) ;
#79 = ADVANCED_FACE ( 'NONE', ( #20 ), #91, .T. ) ;
#80 = CYLINDRICAL_SURFACE ( 'NONE', #72, 3.000000000000000444 ) ;
#81 = COORDINATED_UNIVERSAL_TIME_OFFSET ( 1, 0, .AHEAD. ) ;
#82 = DIRECTION ( 'NONE',  ( 0.000000000000000000, 0.000000000000000000, 1.000000000000000000 ) ) ;
#83 = APPROVAL_ROLE ( '' ) ;
#84 = APPROVAL_STATUS ( 'not_yet_approved' ) ;
#85 = CARTESIAN_POINT ( 'NONE',  ( 0.000000000000000000, 0.000000000000000000, 3.000000000000000000 ) ) ;
#86 = CC_DESIGN_PERSON_AND_ORGANIZATION_ASSIGNMENT ( #21, #243, ( #106 ) ) ;
#87 = LOCAL_TIME ( 19, 55, 14.00000000000000000, #58 ) ;
#88 = PERSON_AND_ORGANIZATION ( #201, #78 ) ;
#89 = CARTESIAN_POINT ( 'NONE',  ( 0.000000000000000000, 0.000000000000000000, 3.000000000000000000 ) ) ;
#90 = ORIENTED_EDGE ( 'NONE', *, *, #74, .F. ) ;
#91 = CYLINDRICAL_SURFACE ( 'NONE', #176, 1.600000000000000089 ) ;
#92 = CARTESIAN_POINT ( 'NONE',  ( 3.000000000000000444, 3.673940397442060361E-16, 0.000000000000000000 ) ) ;
#93 = ORIENTED_EDGE ( 'NONE', *, *, #17, .F. ) ;
#94 = ORIENTED_EDGE ( 'NONE', *, *, #217, .F. ) ;
#95 = ADVANCED_BREP_SHAPE_REPRESENTATION ( 'b928', ( #241, #252 ), #196 ) ;
#96 = VECTOR ( 'NONE', #148, 1000.000000000000000 ) ;
#97 = AXIS2_PLACEMENT_3D ( 'NONE', #174, #138, #216 ) ;
#98 = COORDINATED_UNIVERSAL_TIME_OFFSET ( 1, 0, .AHEAD. ) ;
#99 = DIRECTION ( 'NONE',  ( -1.000000000000000000, 0.000000000000000000, 0.000000000000000000 ) ) ;
#100 = CC_DESIGN_DATE_AND_TIME_ASSIGNMENT ( #2, #210, ( #221 ) ) ;
#101 = DATE_AND_TIME ( #224, #62 ) ;
#102 = PERSON_AND_ORGANIZATION_ROLE ( 'classification_officer' ) ;
#103 = LINE ( 'NONE', #27, #214 ) ;
#104 = SHAPE_DEFINITION_REPRESENTATION ( #9, #95 ) ;
#105 = PLANE ( 'NONE',  #39 ) ;
#106 = PRODUCT_DEFINITION ( 'NEZNÁMÝ', '', #59, #37 ) ;
#107 = CARTESIAN_POINT ( 'NONE',  ( -1.600000000000000089, 0.000000000000000000, 3.000000000000000000 ) ) ;
#108 = AXIS2_PLACEMENT_3D ( 'NONE', #186, #82, #7 ) ;
#109 = CARTESIAN_POINT ( 'NONE',  ( 1.600000000000000089, 1.959434878635765230E-16, 163.0000000000000000 ) ) ;
#110 = EDGE_CURVE ( 'NONE', #160, #113, #16, .T. ) ;
#111 = ORIENTED_EDGE ( 'NONE', *, *, #116, .F. ) ;
#112 = CIRCLE ( 'NONE', #108, 3.000000000000000444 ) ;
#113 = VERTEX_POINT ( 'NONE', #22 ) ;
#114 = APPLICATION_CONTEXT ( 'configuration controlled 3d designs of mechanical parts and assemblies' ) ;
#115 = DIRECTION ( 'NONE',  ( 0.000000000000000000, 0.000000000000000000, 1.000000000000000000 ) ) ;
#116 = EDGE_CURVE ( 'NONE', #156, #133, #103, .T. ) ;
#117 = ORIENTED_EDGE ( 'NONE', *, *, #110, .F. ) ;
#118 = VERTEX_POINT ( 'NONE', #109 ) ;
#119 = CC_DESIGN_APPROVAL ( #250, ( #59 ) ) ;
#120 = EDGE_CURVE ( 'NONE', #113, #160, #76, .T. ) ;
#121 = LOCAL_TIME ( 19, 55, 14.00000000000000000, #98 ) ;
#122 = DIRECTION ( 'NONE',  ( 1.000000000000000000, 0.000000000000000000, 0.000000000000000000 ) ) ;
#123 = ADVANCED_FACE ( 'NONE', ( #207 ), #188, .T. ) ;
#124 = APPROVAL_DATE_TIME ( #41, #250 ) ;
#125 = PERSON_AND_ORGANIZATION_ROLE ( 'creator' ) ;
#126 = CC_DESIGN_SECURITY_CLASSIFICATION ( #221, ( #59 ) ) ;
#127 = DIRECTION ( 'NONE',  ( -1.000000000000000000, 0.000000000000000000, 0.000000000000000000 ) ) ;
#128 = ADVANCED_FACE ( 'NONE', ( #215, #209 ), #105, .T. ) ;
#129 = DIRECTION ( 'NONE',  ( 0.000000000000000000, 0.000000000000000000, 1.000000000000000000 ) ) ;
#130 = LINE ( 'NONE', #48, #96 ) ;
#131 = CIRCLE ( 'NONE', #97, 1.600000000000000089 ) ;
#132 = ADVANCED_FACE ( 'NONE', ( #168 ), #151, .T. ) ;
#133 = VERTEX_POINT ( 'NONE', #183 ) ;
#134 = EDGE_LOOP ( 'NONE', ( #34, #247 ) ) ;
#135 = APPROVAL ( #240, 'NEURÈENÝ' ) ;
#136 = AXIS2_PLACEMENT_3D ( 'NONE', #248, #70, #52 ) ;
#137 = DIRECTION ( 'NONE',  ( 1.000000000000000000, 0.000000000000000000, 0.000000000000000000 ) ) ;
#138 = DIRECTION ( 'NONE',  ( 0.000000000000000000, 0.000000000000000000, 1.000000000000000000 ) ) ;
#139 = ORIENTED_EDGE ( 'NONE', *, *, #35, .T. ) ;
#140 = ORIENTED_EDGE ( 'NONE', *, *, #43, .F. ) ;
#141 = VECTOR ( 'NONE', #73, 1000.000000000000000 ) ;
#142 = CC_DESIGN_PERSON_AND_ORGANIZATION_ASSIGNMENT ( #150, #102, ( #221 ) ) ;
#143 =( LENGTH_UNIT ( ) NAMED_UNIT ( * ) SI_UNIT ( .MILLI., .METRE. ) );
#144 = LOCAL_TIME ( 19, 55, 14.00000000000000000, #81 ) ;
#145 = DIRECTION ( 'NONE',  ( 0.000000000000000000, 0.000000000000000000, 1.000000000000000000 ) ) ;
#146 = MECHANICAL_CONTEXT ( 'NONE', #114, 'mechanical' ) ;
#147 =( NAMED_UNIT ( * ) PLANE_ANGLE_UNIT ( ) SI_UNIT ( $, .RADIAN. ) );
#148 = DIRECTION ( 'NONE',  ( -0.000000000000000000, -0.000000000000000000, -1.000000000000000000 ) ) ;
#149 = AXIS2_PLACEMENT_3D ( 'NONE', #25, #152, #61 ) ;
#150 = PERSON_AND_ORGANIZATION ( #201, #78 ) ;
#151 = PLANE ( 'NONE',  #171 ) ;
#152 = DIRECTION ( 'NONE',  ( 0.000000000000000000, 0.000000000000000000, 1.000000000000000000 ) ) ;
#153 = CC_DESIGN_PERSON_AND_ORGANIZATION_ASSIGNMENT ( #46, #204, ( #59 ) ) ;
#154 = VERTEX_POINT ( 'NONE', #3 ) ;
#155 = LINE ( 'NONE', #67, #163 ) ;
#156 = VERTEX_POINT ( 'NONE', #229 ) ;
#157 = EDGE_CURVE ( 'NONE', #33, #133, #187, .T. ) ;
#158 = AXIS2_PLACEMENT_3D ( 'NONE', #245, #246, #64 ) ;
#159 = CARTESIAN_POINT ( 'NONE',  ( -1.600000000000000089, 0.000000000000000000, 163.0000000000000000 ) ) ;
#160 = VERTEX_POINT ( 'NONE', #107 ) ;
#161 = AXIS2_PLACEMENT_3D ( 'NONE', #89, #227, #45 ) ;
#162 = APPLICATION_PROTOCOL_DEFINITION ( 'international standard', 'config_control_design', 1994, #38 ) ;
#163 = VECTOR ( 'NONE', #13, 1000.000000000000000 ) ;
#164 = CALENDAR_DATE ( 2022, 7, 7 ) ;
#165 = CARTESIAN_POINT ( 'NONE',  ( 0.000000000000000000, 0.000000000000000000, 0.000000000000000000 ) ) ;
#166 = EDGE_CURVE ( 'NONE', #51, #160, #130, .T. ) ;
#167 = DIRECTION ( 'NONE',  ( -0.000000000000000000, -0.000000000000000000, -1.000000000000000000 ) ) ;
#168 = FACE_OUTER_BOUND ( 'NONE', #10, .T. ) ;
#169 = PERSON_AND_ORGANIZATION ( #201, #78 ) ;
#170 = FACE_OUTER_BOUND ( 'NONE', #75, .T. ) ;
#171 = AXIS2_PLACEMENT_3D ( 'NONE', #47, #115, #192 ) ;
#172 = ORIENTED_EDGE ( 'NONE', *, *, #166, .F. ) ;
#173 = DIRECTION ( 'NONE',  ( -0.000000000000000000, -0.000000000000000000, -1.000000000000000000 ) ) ;
#174 = CARTESIAN_POINT ( 'NONE',  ( 0.000000000000000000, 0.000000000000000000, 163.0000000000000000 ) ) ;
#175 = EDGE_LOOP ( 'NONE', ( #93, #54, #234, #111 ) ) ;
#176 = AXIS2_PLACEMENT_3D ( 'NONE', #11, #167, #127 ) ;
#177 = ORIENTED_EDGE ( 'NONE', *, *, #217, .T. ) ;
#178 = APPROVAL_PERSON_ORGANIZATION ( #203, #135, #200 ) ;
#179 = APPROVAL_DATE_TIME ( #101, #135 ) ;
#180 = CALENDAR_DATE ( 2022, 7, 7 ) ;
#181 = EDGE_CURVE ( 'NONE', #133, #33, #112, .T. ) ;
#182 = CALENDAR_DATE ( 2022, 7, 7 ) ;
#183 = CARTESIAN_POINT ( 'NONE',  ( -3.000000000000000444, 0.000000000000000000, 0.000000000000000000 ) ) ;
#184 = DATE_AND_TIME ( #180, #87 ) ;
#185 = PLANE ( 'NONE',  #136 ) ;
#186 = CARTESIAN_POINT ( 'NONE',  ( 0.000000000000000000, 0.000000000000000000, 0.000000000000000000 ) ) ;
#187 = CIRCLE ( 'NONE', #149, 3.000000000000000444 ) ;
#188 = CYLINDRICAL_SURFACE ( 'NONE', #161, 3.000000000000000444 ) ;
#189 = EDGE_LOOP ( 'NONE', ( #90, #219, #69, #213 ) ) ;
#190 = CLOSED_SHELL ( 'NONE', ( #197, #123, #202, #128, #65, #79, #132 ) ) ;
#191 = DIRECTION ( 'NONE',  ( 0.000000000000000000, 0.000000000000000000, 1.000000000000000000 ) ) ;
#192 = DIRECTION ( 'NONE',  ( 1.000000000000000000, 0.000000000000000000, -0.000000000000000000 ) ) ;
#193 = CARTESIAN_POINT ( 'NONE',  ( 0.000000000000000000, 0.000000000000000000, 3.000000000000000000 ) ) ;
#194 = ORIENTED_EDGE ( 'NONE', *, *, #35, .F. ) ;
#195 = CC_DESIGN_PERSON_AND_ORGANIZATION_ASSIGNMENT ( #239, #206, ( #23 ) ) ;
#196 =( GEOMETRIC_REPRESENTATION_CONTEXT ( 3 ) GLOBAL_UNCERTAINTY_ASSIGNED_CONTEXT ( ( #199 ) ) GLOBAL_UNIT_ASSIGNED_CONTEXT ( ( #143, #147, #198 ) ) REPRESENTATION_CONTEXT ( 'NONE', 'WORKASPACE' ) );
#197 = ADVANCED_FACE ( 'NONE', ( #170 ), #211, .T. ) ;
#198 =( NAMED_UNIT ( * ) SI_UNIT ( $, .STERADIAN. ) SOLID_ANGLE_UNIT ( ) );
#199 = UNCERTAINTY_MEASURE_WITH_UNIT (LENGTH_MEASURE( 1.000000000000000082E-05 ), #143, 'distance_accuracy_value', 'NONE');
#200 = APPROVAL_ROLE ( '' ) ;
#201 = PERSON ( 'NEURÈENÝ', 'NEURÈENÝ', 'NEURÈENÝ', ('NEURÈENÝ'), ('NEURÈENÝ'), ('NEURÈENÝ') ) ;
#202 = ADVANCED_FACE ( 'NONE', ( #19 ), #80, .T. ) ;
#203 = PERSON_AND_ORGANIZATION ( #201, #78 ) ;
#204 = PERSON_AND_ORGANIZATION_ROLE ( 'design_supplier' ) ;
#205 = APPROVAL_PERSON_ORGANIZATION ( #169, #56, #68 ) ;
#206 = PERSON_AND_ORGANIZATION_ROLE ( 'design_owner' ) ;
#207 = FACE_OUTER_BOUND ( 'NONE', #175, .T. ) ;
#208 = CC_DESIGN_PERSON_AND_ORGANIZATION_ASSIGNMENT ( #88, #125, ( #59 ) ) ;
#209 = FACE_OUTER_BOUND ( 'NONE', #232, .T. ) ;
#210 = DATE_TIME_ROLE ( 'classification_date' ) ;
#211 = CYLINDRICAL_SURFACE ( 'NONE', #30, 1.600000000000000089 ) ;
#212 = EDGE_LOOP ( 'NONE', ( #140, #94, #237, #15 ) ) ;
#213 = ORIENTED_EDGE ( 'NONE', *, *, #181, .T. ) ;
#214 = VECTOR ( 'NONE', #6, 1000.000000000000000 ) ;
#215 = FACE_BOUND ( 'NONE', #218, .T. ) ;
#216 = DIRECTION ( 'NONE',  ( 1.000000000000000000, 0.000000000000000000, 0.000000000000000000 ) ) ;
#217 = EDGE_CURVE ( 'NONE', #51, #118, #226, .T. ) ;
#218 = EDGE_LOOP ( 'NONE', ( #117, #57 ) ) ;
#219 = ORIENTED_EDGE ( 'NONE', *, *, #28, .F. ) ;
#220 = APPLICATION_PROTOCOL_DEFINITION ( 'international standard', 'config_control_design', 1994, #114 ) ;
#221 = SECURITY_CLASSIFICATION ( '', '', #63 ) ;
#222 = DIRECTION ( 'NONE',  ( 1.000000000000000000, 0.000000000000000000, 0.000000000000000000 ) ) ;
#223 = PRODUCT_RELATED_PRODUCT_CATEGORY ( 'detail', '', ( #23 ) ) ;
#224 = CALENDAR_DATE ( 2022, 7, 7 ) ;
#225 = DIRECTION ( 'NONE',  ( 0.000000000000000000, 0.000000000000000000, 1.000000000000000000 ) ) ;
#226 = CIRCLE ( 'NONE', #49, 1.600000000000000089 ) ;
#227 = DIRECTION ( 'NONE',  ( -0.000000000000000000, -0.000000000000000000, -1.000000000000000000 ) ) ;
#228 = CARTESIAN_POINT ( 'NONE',  ( 0.000000000000000000, 0.000000000000000000, 3.000000000000000000 ) ) ;
#229 = CARTESIAN_POINT ( 'NONE',  ( -3.000000000000000444, 0.000000000000000000, 3.000000000000000000 ) ) ;
#230 = CIRCLE ( 'NONE', #238, 3.000000000000000444 ) ;
#231 = CC_DESIGN_DATE_AND_TIME_ASSIGNMENT ( #184, #255, ( #106 ) ) ;
#232 = EDGE_LOOP ( 'NONE', ( #253, #29 ) ) ;
#233 = DIRECTION ( 'NONE',  ( 0.000000000000000000, 0.000000000000000000, 1.000000000000000000 ) ) ;
#234 = ORIENTED_EDGE ( 'NONE', *, *, #157, .T. ) ;
#235 = APPROVAL_PERSON_ORGANIZATION ( #77, #250, #83 ) ;
#236 = DIRECTION ( 'NONE',  ( 1.000000000000000000, 0.000000000000000000, 0.000000000000000000 ) ) ;
#237 = ORIENTED_EDGE ( 'NONE', *, *, #166, .T. ) ;
#238 = AXIS2_PLACEMENT_3D ( 'NONE', #193, #191, #12 ) ;
#239 = PERSON_AND_ORGANIZATION ( #201, #78 ) ;
#240 = APPROVAL_STATUS ( 'not_yet_approved' ) ;
#241 = MANIFOLD_SOLID_BREP ( 'Pøidat vysunutím3', #190 ) ;
#242 = DIRECTION ( 'NONE',  ( -0.000000000000000000, -0.000000000000000000, -1.000000000000000000 ) ) ;
#243 = PERSON_AND_ORGANIZATION_ROLE ( 'creator' ) ;
#244 = CARTESIAN_POINT ( 'NONE',  ( 0.000000000000000000, 0.000000000000000000, 163.0000000000000000 ) ) ;
#245 = CARTESIAN_POINT ( 'NONE',  ( 0.000000000000000000, 0.000000000000000000, 3.000000000000000000 ) ) ;
#246 = DIRECTION ( 'NONE',  ( 0.000000000000000000, 0.000000000000000000, 1.000000000000000000 ) ) ;
#247 = ORIENTED_EDGE ( 'NONE', *, *, #157, .F. ) ;
#248 = CARTESIAN_POINT ( 'NONE',  ( 0.000000000000000000, 0.000000000000000000, 0.000000000000000000 ) ) ;
#249 = ORIENTED_EDGE ( 'NONE', *, *, #43, .T. ) ;
#250 = APPROVAL ( #4, 'NEURÈENÝ' ) ;
#251 = CARTESIAN_POINT ( 'NONE',  ( 1.600000000000000089, 1.959434878635765230E-16, 163.0000000000000000 ) ) ;
#252 = AXIS2_PLACEMENT_3D ( 'NONE', #165, #145, #222 ) ;
#253 = ORIENTED_EDGE ( 'NONE', *, *, #28, .T. ) ;
#254 = CIRCLE ( 'NONE', #8, 3.000000000000000444 ) ;
#255 = DATE_TIME_ROLE ( 'creation_date' ) ;
ENDSEC;
END-ISO-10303-21;
