ISO-10303-21;
HEADER;
FILE_DESCRIPTION (( 'STEP AP203' ),
    '1' );
FILE_NAME ('fce1.STEP',
    '2022-07-07T17:09:30',
    ( '' ),
    ( '' ),
    'SwSTEP 2.0',
    'SolidWorks 2019',
    '' );
FILE_SCHEMA (( 'CONFIG_CONTROL_DESIGN' ));
ENDSEC;

DATA;
#1 = CARTESIAN_POINT ( 'NONE',  ( 7.750000000000000000, 9.491012693391987787E-16, 132.0000000000000000 ) ) ;
#2 = DIRECTION ( 'NONE',  ( 0.000000000000000000, 0.000000000000000000, 1.000000000000000000 ) ) ;
#3 = CARTESIAN_POINT ( 'NONE',  ( 0.000000000000000000, 0.000000000000000000, 132.0000000000000000 ) ) ;
#4 = VERTEX_POINT ( 'NONE', #64 ) ;
#5 = DIRECTION ( 'NONE',  ( 0.000000000000000000, 0.000000000000000000, 1.000000000000000000 ) ) ;
#6 = DIRECTION ( 'NONE',  ( 1.000000000000000000, 0.000000000000000000, 0.000000000000000000 ) ) ;
#7 = AXIS2_PLACEMENT_3D ( 'NONE', #138, #2, #18 ) ;
#8 = CARTESIAN_POINT ( 'NONE',  ( 0.000000000000000000, 0.000000000000000000, 132.0000000000000000 ) ) ;
#9 = CARTESIAN_POINT ( 'NONE',  ( 0.000000000000000000, 0.000000000000000000, 7.000000000000000000 ) ) ;
#10 = AXIS2_PLACEMENT_3D ( 'NONE', #131, #133, #16 ) ;
#11 = PERSON_AND_ORGANIZATION_ROLE ( 'creator' ) ;
#12 = CC_DESIGN_PERSON_AND_ORGANIZATION_ASSIGNMENT ( #234, #52, ( #26 ) ) ;
#13 = EDGE_CURVE ( 'NONE', #226, #72, #111, .T. ) ;
#14 = COORDINATED_UNIVERSAL_TIME_OFFSET ( 1, 0, .AHEAD. ) ;
#15 = CARTESIAN_POINT ( 'NONE',  ( 0.000000000000000000, 0.000000000000000000, 0.000000000000000000 ) ) ;
#16 = DIRECTION ( 'NONE',  ( 1.000000000000000000, 0.000000000000000000, 0.000000000000000000 ) ) ;
#17 = LOCAL_TIME ( 19, 9, 30.00000000000000000, #14 ) ;
#18 = DIRECTION ( 'NONE',  ( 1.000000000000000000, 0.000000000000000000, -0.000000000000000000 ) ) ;
#19 = VERTEX_POINT ( 'NONE', #216 ) ;
#20 = ADVANCED_FACE ( 'NONE', ( #165 ), #62, .T. ) ;
#21 = DIRECTION ( 'NONE',  ( -0.000000000000000000, -0.000000000000000000, -1.000000000000000000 ) ) ;
#22 = DIRECTION ( 'NONE',  ( 0.000000000000000000, 0.000000000000000000, 1.000000000000000000 ) ) ;
#23 = DIRECTION ( 'NONE',  ( -1.000000000000000000, 0.000000000000000000, 0.000000000000000000 ) ) ;
#24 = CIRCLE ( 'NONE', #217, 7.750000000000000000 ) ;
#25 = AXIS2_PLACEMENT_3D ( 'NONE', #3, #121, #164 ) ;
#26 = SECURITY_CLASSIFICATION ( '', '', #75 ) ;
#27 = VERTEX_POINT ( 'NONE', #120 ) ;
#28 = COORDINATED_UNIVERSAL_TIME_OFFSET ( 1, 0, .AHEAD. ) ;
#29 = CC_DESIGN_PERSON_AND_ORGANIZATION_ASSIGNMENT ( #51, #126, ( #56 ) ) ;
#30 = EDGE_CURVE ( 'NONE', #72, #226, #224, .T. ) ;
#31 = ORIENTED_EDGE ( 'NONE', *, *, #134, .T. ) ;
#32 = AXIS2_PLACEMENT_3D ( 'NONE', #15, #38, #118 ) ;
#33 = APPLICATION_PROTOCOL_DEFINITION ( 'international standard', 'config_control_design', 1994, #90 ) ;
#34 = CALENDAR_DATE ( 2022, 7, 7 ) ;
#35 = CIRCLE ( 'NONE', #61, 7.750000000000000000 ) ;
#36 =( NAMED_UNIT ( * ) SI_UNIT ( $, .STERADIAN. ) SOLID_ANGLE_UNIT ( ) );
#37 = APPROVAL ( #192, 'NEURÈENÝ' ) ;
#38 = DIRECTION ( 'NONE',  ( 0.000000000000000000, 0.000000000000000000, 1.000000000000000000 ) ) ;
#39 = DIRECTION ( 'NONE',  ( 0.000000000000000000, 0.000000000000000000, 1.000000000000000000 ) ) ;
#40 = CARTESIAN_POINT ( 'NONE',  ( 11.00000000000000000, 1.347111479062088405E-15, 7.000000000000000000 ) ) ;
#41 = ORIENTED_EDGE ( 'NONE', *, *, #182, .T. ) ;
#42 = FACE_OUTER_BOUND ( 'NONE', #241, .T. ) ;
#43 = DIRECTION ( 'NONE',  ( 1.000000000000000000, 0.000000000000000000, 0.000000000000000000 ) ) ;
#44 = PLANE ( 'NONE',  #25 ) ;
#45 = ORIENTED_EDGE ( 'NONE', *, *, #229, .F. ) ;
#46 = ORIENTED_EDGE ( 'NONE', *, *, #190, .F. ) ;
#47 = VECTOR ( 'NONE', #57, 1000.000000000000000 ) ;
#48 = CC_DESIGN_PERSON_AND_ORGANIZATION_ASSIGNMENT ( #94, #177, ( #168 ) ) ;
#49 = AXIS2_PLACEMENT_3D ( 'NONE', #158, #39, #102 ) ;
#50 = ADVANCED_FACE ( 'NONE', ( #122 ), #204, .T. ) ;
#51 = PERSON_AND_ORGANIZATION ( #225, #109 ) ;
#52 = PERSON_AND_ORGANIZATION_ROLE ( 'classification_officer' ) ;
#53 = PERSON_AND_ORGANIZATION ( #225, #109 ) ;
#54 = AXIS2_PLACEMENT_3D ( 'NONE', #178, #117, #198 ) ;
#55 = LINE ( 'NONE', #214, #47 ) ;
#56 = PRODUCT_DEFINITION_FORMATION_WITH_SPECIFIED_SOURCE ( 'LIBOVOLNÝ', '', #168, .NOT_KNOWN. ) ;
#57 = DIRECTION ( 'NONE',  ( -0.000000000000000000, -0.000000000000000000, -1.000000000000000000 ) ) ;
#58 = DIRECTION ( 'NONE',  ( -0.000000000000000000, -0.000000000000000000, -1.000000000000000000 ) ) ;
#59 = ORIENTED_EDGE ( 'NONE', *, *, #30, .F. ) ;
#60 = FACE_BOUND ( 'NONE', #87, .T. ) ;
#61 = AXIS2_PLACEMENT_3D ( 'NONE', #166, #22, #6 ) ;
#62 = CYLINDRICAL_SURFACE ( 'NONE', #233, 11.00000000000000000 ) ;
#63 = DIRECTION ( 'NONE',  ( 1.000000000000000000, 0.000000000000000000, 0.000000000000000000 ) ) ;
#64 = CARTESIAN_POINT ( 'NONE',  ( 7.750000000000000000, 9.491012693391987787E-16, 7.000000000000000000 ) ) ;
#65 = CYLINDRICAL_SURFACE ( 'NONE', #209, 11.00000000000000000 ) ;
#66 = ORIENTED_EDGE ( 'NONE', *, *, #235, .F. ) ;
#67 = APPROVAL_PERSON_ORGANIZATION ( #53, #95, #93 ) ;
#68 = EDGE_CURVE ( 'NONE', #239, #27, #35, .T. ) ;
#69 = ADVANCED_FACE ( 'NONE', ( #245 ), #65, .T. ) ;
#70 = SHAPE_DEFINITION_REPRESENTATION ( #113, #153 ) ;
#71 = LOCAL_TIME ( 19, 9, 30.00000000000000000, #28 ) ;
#72 = VERTEX_POINT ( 'NONE', #184 ) ;
#73 = UNCERTAINTY_MEASURE_WITH_UNIT (LENGTH_MEASURE( 1.000000000000000082E-05 ), #255, 'distance_accuracy_value', 'NONE');
#74 = CALENDAR_DATE ( 2022, 7, 7 ) ;
#75 = SECURITY_CLASSIFICATION_LEVEL ( 'unclassified' ) ;
#76 = COORDINATED_UNIVERSAL_TIME_OFFSET ( 1, 0, .AHEAD. ) ;
#77 = APPROVAL_STATUS ( 'not_yet_approved' ) ;
#78 = LOCAL_TIME ( 19, 9, 30.00000000000000000, #249 ) ;
#79 = CARTESIAN_POINT ( 'NONE',  ( 0.000000000000000000, 0.000000000000000000, 7.000000000000000000 ) ) ;
#80 = CARTESIAN_POINT ( 'NONE',  ( 0.000000000000000000, 0.000000000000000000, 0.000000000000000000 ) ) ;
#81 = FACE_OUTER_BOUND ( 'NONE', #125, .T. ) ;
#82 = DIRECTION ( 'NONE',  ( 0.000000000000000000, 0.000000000000000000, 1.000000000000000000 ) ) ;
#83 = LINE ( 'NONE', #199, #228 ) ;
#84 = ORIENTED_EDGE ( 'NONE', *, *, #229, .T. ) ;
#85 = VERTEX_POINT ( 'NONE', #213 ) ;
#86 = CC_DESIGN_DATE_AND_TIME_ASSIGNMENT ( #156, #173, ( #237 ) ) ;
#87 = EDGE_LOOP ( 'NONE', ( #206, #45 ) ) ;
#88 = CALENDAR_DATE ( 2022, 7, 7 ) ;
#89 = EDGE_CURVE ( 'NONE', #27, #231, #55, .T. ) ;
#90 = APPLICATION_CONTEXT ( 'configuration controlled 3d designs of mechanical parts and assemblies' ) ;
#91 = CLOSED_SHELL ( 'NONE', ( #186, #69, #20, #162, #170, #50, #222 ) ) ;
#92 = CALENDAR_DATE ( 2022, 7, 7 ) ;
#93 = APPROVAL_ROLE ( '' ) ;
#94 = PERSON_AND_ORGANIZATION ( #225, #109 ) ;
#95 = APPROVAL ( #77, 'NEURÈENÝ' ) ;
#96 = DIRECTION ( 'NONE',  ( -0.000000000000000000, -0.000000000000000000, -1.000000000000000000 ) ) ;
#97 = AXIS2_PLACEMENT_3D ( 'NONE', #194, #195, #197 ) ;
#98 = APPROVAL_PERSON_ORGANIZATION ( #143, #37, #247 ) ;
#99 = FACE_OUTER_BOUND ( 'NONE', #221, .T. ) ;
#100 = LINE ( 'NONE', #200, #105 ) ;
#101 = ORIENTED_EDGE ( 'NONE', *, *, #127, .F. ) ;
#102 = DIRECTION ( 'NONE',  ( 1.000000000000000000, 0.000000000000000000, 0.000000000000000000 ) ) ;
#103 = ORIENTED_EDGE ( 'NONE', *, *, #13, .T. ) ;
#104 = APPLICATION_CONTEXT ( 'configuration controlled 3d designs of mechanical parts and assemblies' ) ;
#105 = VECTOR ( 'NONE', #96, 1000.000000000000000 ) ;
#106 = ORIENTED_EDGE ( 'NONE', *, *, #235, .T. ) ;
#107 = ORIENTED_EDGE ( 'NONE', *, *, #182, .F. ) ;
#108 = EDGE_CURVE ( 'NONE', #231, #4, #144, .T. ) ;
#109 = ORGANIZATION ( 'NEURÈENÝ', 'NEURÈENÝ', '' ) ;
#110 = DATE_TIME_ROLE ( 'classification_date' ) ;
#111 = CIRCLE ( 'NONE', #130, 11.00000000000000000 ) ;
#112 = APPROVAL_DATE_TIME ( #157, #95 ) ;
#113 = PRODUCT_DEFINITION_SHAPE ( 'NONE', 'NONE',  #237 ) ;
#114 = CALENDAR_DATE ( 2022, 7, 7 ) ;
#115 = CC_DESIGN_DATE_AND_TIME_ASSIGNMENT ( #227, #110, ( #26 ) ) ;
#116 = MECHANICAL_CONTEXT ( 'NONE', #90, 'mechanical' ) ;
#117 = DIRECTION ( 'NONE',  ( 0.000000000000000000, 0.000000000000000000, 1.000000000000000000 ) ) ;
#118 = DIRECTION ( 'NONE',  ( 1.000000000000000000, 0.000000000000000000, -0.000000000000000000 ) ) ;
#119 = DIRECTION ( 'NONE',  ( -0.000000000000000000, -0.000000000000000000, -1.000000000000000000 ) ) ;
#120 = CARTESIAN_POINT ( 'NONE',  ( -7.750000000000000000, 0.000000000000000000, 132.0000000000000000 ) ) ;
#121 = DIRECTION ( 'NONE',  ( 0.000000000000000000, 0.000000000000000000, 1.000000000000000000 ) ) ;
#122 = FACE_OUTER_BOUND ( 'NONE', #183, .T. ) ;
#123 = ORIENTED_EDGE ( 'NONE', *, *, #68, .T. ) ;
#124 = AXIS2_PLACEMENT_3D ( 'NONE', #160, #58, #135 ) ;
#125 = EDGE_LOOP ( 'NONE', ( #107, #101 ) ) ;
#126 = PERSON_AND_ORGANIZATION_ROLE ( 'design_supplier' ) ;
#127 = EDGE_CURVE ( 'NONE', #19, #85, #147, .T. ) ;
#128 = COORDINATED_UNIVERSAL_TIME_OFFSET ( 1, 0, .AHEAD. ) ;
#129 = PERSON_AND_ORGANIZATION ( #225, #109 ) ;
#130 = AXIS2_PLACEMENT_3D ( 'NONE', #219, #223, #163 ) ;
#131 = CARTESIAN_POINT ( 'NONE',  ( 0.000000000000000000, 0.000000000000000000, 7.000000000000000000 ) ) ;
#132 = PRODUCT_RELATED_PRODUCT_CATEGORY ( 'detail', '', ( #168 ) ) ;
#133 = DIRECTION ( 'NONE',  ( 0.000000000000000000, 0.000000000000000000, 1.000000000000000000 ) ) ;
#134 = EDGE_CURVE ( 'NONE', #239, #4, #83, .T. ) ;
#135 = DIRECTION ( 'NONE',  ( -1.000000000000000000, 0.000000000000000000, 0.000000000000000000 ) ) ;
#136 = ORIENTED_EDGE ( 'NONE', *, *, #108, .T. ) ;
#137 = LOCAL_TIME ( 19, 9, 30.00000000000000000, #76 ) ;
#138 = CARTESIAN_POINT ( 'NONE',  ( 0.000000000000000000, 0.000000000000000000, 7.000000000000000000 ) ) ;
#139 = CARTESIAN_POINT ( 'NONE',  ( 0.000000000000000000, 0.000000000000000000, 7.000000000000000000 ) ) ;
#140 = APPROVAL ( #155, 'NEURÈENÝ' ) ;
#141 = CARTESIAN_POINT ( 'NONE',  ( -7.750000000000000000, 0.000000000000000000, 7.000000000000000000 ) ) ;
#142 = DIRECTION ( 'NONE',  ( -0.000000000000000000, -0.000000000000000000, -1.000000000000000000 ) ) ;
#143 = PERSON_AND_ORGANIZATION ( #225, #109 ) ;
#144 = CIRCLE ( 'NONE', #10, 7.750000000000000000 ) ;
#145 = LOCAL_TIME ( 19, 9, 30.00000000000000000, #128 ) ;
#146 = ORIENTED_EDGE ( 'NONE', *, *, #127, .T. ) ;
#147 = CIRCLE ( 'NONE', #49, 11.00000000000000000 ) ;
#148 = CC_DESIGN_APPROVAL ( #37, ( #26 ) ) ;
#149 = ORIENTED_EDGE ( 'NONE', *, *, #89, .T. ) ;
#150 = ORIENTED_EDGE ( 'NONE', *, *, #190, .T. ) ;
#151 = APPROVAL_DATE_TIME ( #212, #140 ) ;
#152 = EDGE_LOOP ( 'NONE', ( #159, #31, #84, #185 ) ) ;
#153 = ADVANCED_BREP_SHAPE_REPRESENTATION ( 'fce1', ( #208, #97 ), #179 ) ;
#154 = VECTOR ( 'NONE', #119, 1000.000000000000000 ) ;
#155 = APPROVAL_STATUS ( 'not_yet_approved' ) ;
#156 = DATE_AND_TIME ( #92, #137 ) ;
#157 = DATE_AND_TIME ( #114, #17 ) ;
#158 = CARTESIAN_POINT ( 'NONE',  ( 0.000000000000000000, 0.000000000000000000, 0.000000000000000000 ) ) ;
#159 = ORIENTED_EDGE ( 'NONE', *, *, #68, .F. ) ;
#160 = CARTESIAN_POINT ( 'NONE',  ( 0.000000000000000000, 0.000000000000000000, 132.0000000000000000 ) ) ;
#161 = CARTESIAN_POINT ( 'NONE',  ( -11.00000000000000000, 0.000000000000000000, 7.000000000000000000 ) ) ;
#162 = ADVANCED_FACE ( 'NONE', ( #60, #99 ), #218, .T. ) ;
#163 = DIRECTION ( 'NONE',  ( 1.000000000000000000, 0.000000000000000000, 0.000000000000000000 ) ) ;
#164 = DIRECTION ( 'NONE',  ( 1.000000000000000000, 0.000000000000000000, -0.000000000000000000 ) ) ;
#165 = FACE_OUTER_BOUND ( 'NONE', #251, .T. ) ;
#166 = CARTESIAN_POINT ( 'NONE',  ( 0.000000000000000000, 0.000000000000000000, 132.0000000000000000 ) ) ;
#167 = ORIENTED_EDGE ( 'NONE', *, *, #134, .F. ) ;
#168 = PRODUCT ( 'fce1', 'fce1', '', ( #116 ) ) ;
#169 = CC_DESIGN_APPROVAL ( #95, ( #237 ) ) ;
#170 = ADVANCED_FACE ( 'NONE', ( #81 ), #181, .F. ) ;
#171 = CIRCLE ( 'NONE', #54, 7.750000000000000000 ) ;
#172 = ORIENTED_EDGE ( 'NONE', *, *, #13, .F. ) ;
#173 = DATE_TIME_ROLE ( 'creation_date' ) ;
#174 = PERSON_AND_ORGANIZATION ( #225, #109 ) ;
#175 = DESIGN_CONTEXT ( 'detailed design', #104, 'design' ) ;
#176 = APPLICATION_PROTOCOL_DEFINITION ( 'international standard', 'config_control_design', 1994, #104 ) ;
#177 = PERSON_AND_ORGANIZATION_ROLE ( 'design_owner' ) ;
#178 = CARTESIAN_POINT ( 'NONE',  ( 0.000000000000000000, 0.000000000000000000, 132.0000000000000000 ) ) ;
#179 =( GEOMETRIC_REPRESENTATION_CONTEXT ( 3 ) GLOBAL_UNCERTAINTY_ASSIGNED_CONTEXT ( ( #73 ) ) GLOBAL_UNIT_ASSIGNED_CONTEXT ( ( #255, #254, #36 ) ) REPRESENTATION_CONTEXT ( 'NONE', 'WORKASPACE' ) );
#180 = CYLINDRICAL_SURFACE ( 'NONE', #124, 7.750000000000000000 ) ;
#181 = PLANE ( 'NONE',  #32 ) ;
#182 = EDGE_CURVE ( 'NONE', #85, #19, #187, .T. ) ;
#183 = EDGE_LOOP ( 'NONE', ( #167, #66, #149, #136 ) ) ;
#184 = CARTESIAN_POINT ( 'NONE',  ( 11.00000000000000000, 1.347111479062088405E-15, 7.000000000000000000 ) ) ;
#185 = ORIENTED_EDGE ( 'NONE', *, *, #89, .F. ) ;
#186 = ADVANCED_FACE ( 'NONE', ( #238 ), #180, .T. ) ;
#187 = CIRCLE ( 'NONE', #193, 11.00000000000000000 ) ;
#188 = ORIENTED_EDGE ( 'NONE', *, *, #30, .T. ) ;
#189 = ORIENTED_EDGE ( 'NONE', *, *, #205, .F. ) ;
#190 = EDGE_CURVE ( 'NONE', #72, #19, #215, .T. ) ;
#191 = APPROVAL_DATE_TIME ( #248, #37 ) ;
#192 = APPROVAL_STATUS ( 'not_yet_approved' ) ;
#193 = AXIS2_PLACEMENT_3D ( 'NONE', #80, #5, #202 ) ;
#194 = CARTESIAN_POINT ( 'NONE',  ( 0.000000000000000000, 0.000000000000000000, 0.000000000000000000 ) ) ;
#195 = DIRECTION ( 'NONE',  ( 0.000000000000000000, 0.000000000000000000, 1.000000000000000000 ) ) ;
#196 = AXIS2_PLACEMENT_3D ( 'NONE', #8, #203, #23 ) ;
#197 = DIRECTION ( 'NONE',  ( 1.000000000000000000, 0.000000000000000000, 0.000000000000000000 ) ) ;
#198 = DIRECTION ( 'NONE',  ( 1.000000000000000000, 0.000000000000000000, 0.000000000000000000 ) ) ;
#199 = CARTESIAN_POINT ( 'NONE',  ( 7.750000000000000000, 9.491012693391987787E-16, 132.0000000000000000 ) ) ;
#200 = CARTESIAN_POINT ( 'NONE',  ( -11.00000000000000000, 0.000000000000000000, 7.000000000000000000 ) ) ;
#201 = ORIENTED_EDGE ( 'NONE', *, *, #205, .T. ) ;
#202 = DIRECTION ( 'NONE',  ( 1.000000000000000000, 0.000000000000000000, 0.000000000000000000 ) ) ;
#203 = DIRECTION ( 'NONE',  ( -0.000000000000000000, -0.000000000000000000, -1.000000000000000000 ) ) ;
#204 = CYLINDRICAL_SURFACE ( 'NONE', #196, 7.750000000000000000 ) ;
#205 = EDGE_CURVE ( 'NONE', #226, #85, #100, .T. ) ;
#206 = ORIENTED_EDGE ( 'NONE', *, *, #108, .F. ) ;
#207 = AXIS2_PLACEMENT_3D ( 'NONE', #139, #82, #43 ) ;
#208 = MANIFOLD_SOLID_BREP ( 'Pøidat vysunutím3', #91 ) ;
#209 = AXIS2_PLACEMENT_3D ( 'NONE', #79, #21, #236 ) ;
#210 = CC_DESIGN_SECURITY_CLASSIFICATION ( #26, ( #56 ) ) ;
#211 = PERSON_AND_ORGANIZATION_ROLE ( 'creator' ) ;
#212 = DATE_AND_TIME ( #74, #78 ) ;
#213 = CARTESIAN_POINT ( 'NONE',  ( -11.00000000000000000, 0.000000000000000000, 0.000000000000000000 ) ) ;
#214 = CARTESIAN_POINT ( 'NONE',  ( -7.750000000000000000, 0.000000000000000000, 132.0000000000000000 ) ) ;
#215 = LINE ( 'NONE', #40, #154 ) ;
#216 = CARTESIAN_POINT ( 'NONE',  ( 11.00000000000000000, 1.347111479062088405E-15, 0.000000000000000000 ) ) ;
#217 = AXIS2_PLACEMENT_3D ( 'NONE', #243, #240, #63 ) ;
#218 = PLANE ( 'NONE',  #7 ) ;
#219 = CARTESIAN_POINT ( 'NONE',  ( 0.000000000000000000, 0.000000000000000000, 7.000000000000000000 ) ) ;
#220 = DIRECTION ( 'NONE',  ( -0.000000000000000000, -0.000000000000000000, -1.000000000000000000 ) ) ;
#221 = EDGE_LOOP ( 'NONE', ( #103, #188 ) ) ;
#222 = ADVANCED_FACE ( 'NONE', ( #42 ), #44, .T. ) ;
#223 = DIRECTION ( 'NONE',  ( 0.000000000000000000, 0.000000000000000000, 1.000000000000000000 ) ) ;
#224 = CIRCLE ( 'NONE', #207, 11.00000000000000000 ) ;
#225 = PERSON ( 'NEURÈENÝ', 'NEURÈENÝ', 'NEURÈENÝ', ('NEURÈENÝ'), ('NEURÈENÝ'), ('NEURÈENÝ') ) ;
#226 = VERTEX_POINT ( 'NONE', #161 ) ;
#227 = DATE_AND_TIME ( #34, #145 ) ;
#228 = VECTOR ( 'NONE', #220, 1000.000000000000000 ) ;
#229 = EDGE_CURVE ( 'NONE', #4, #231, #24, .T. ) ;
#230 = CC_DESIGN_PERSON_AND_ORGANIZATION_ASSIGNMENT ( #174, #11, ( #237 ) ) ;
#231 = VERTEX_POINT ( 'NONE', #141 ) ;
#232 = PERSON_AND_ORGANIZATION ( #225, #109 ) ;
#233 = AXIS2_PLACEMENT_3D ( 'NONE', #9, #142, #246 ) ;
#234 = PERSON_AND_ORGANIZATION ( #225, #109 ) ;
#235 = EDGE_CURVE ( 'NONE', #27, #239, #171, .T. ) ;
#236 = DIRECTION ( 'NONE',  ( -1.000000000000000000, 0.000000000000000000, 0.000000000000000000 ) ) ;
#237 = PRODUCT_DEFINITION ( 'NEZNÁMÝ', '', #56, #175 ) ;
#238 = FACE_OUTER_BOUND ( 'NONE', #152, .T. ) ;
#239 = VERTEX_POINT ( 'NONE', #1 ) ;
#240 = DIRECTION ( 'NONE',  ( 0.000000000000000000, 0.000000000000000000, 1.000000000000000000 ) ) ;
#241 = EDGE_LOOP ( 'NONE', ( #106, #123 ) ) ;
#242 = APPROVAL_PERSON_ORGANIZATION ( #129, #140, #250 ) ;
#243 = CARTESIAN_POINT ( 'NONE',  ( 0.000000000000000000, 0.000000000000000000, 7.000000000000000000 ) ) ;
#244 = EDGE_LOOP ( 'NONE', ( #59, #150, #146, #189 ) ) ;
#245 = FACE_OUTER_BOUND ( 'NONE', #244, .T. ) ;
#246 = DIRECTION ( 'NONE',  ( -1.000000000000000000, 0.000000000000000000, 0.000000000000000000 ) ) ;
#247 = APPROVAL_ROLE ( '' ) ;
#248 = DATE_AND_TIME ( #88, #71 ) ;
#249 = COORDINATED_UNIVERSAL_TIME_OFFSET ( 1, 0, .AHEAD. ) ;
#250 = APPROVAL_ROLE ( '' ) ;
#251 = EDGE_LOOP ( 'NONE', ( #46, #172, #201, #41 ) ) ;
#252 = CC_DESIGN_PERSON_AND_ORGANIZATION_ASSIGNMENT ( #232, #211, ( #56 ) ) ;
#253 = CC_DESIGN_APPROVAL ( #140, ( #56 ) ) ;
#254 =( NAMED_UNIT ( * ) PLANE_ANGLE_UNIT ( ) SI_UNIT ( $, .RADIAN. ) );
#255 =( LENGTH_UNIT ( ) NAMED_UNIT ( * ) SI_UNIT ( .MILLI., .METRE. ) );
ENDSEC;
END-ISO-10303-21;
