ISO-10303-21;
HEADER;
FILE_DESCRIPTION (( 'STEP AP203' ),
    '1' );
FILE_NAME ('8720.STEP',
    '2022-07-07T17:51:03',
    ( '' ),
    ( '' ),
    'SwSTEP 2.0',
    'SolidWorks 2019',
    '' );
FILE_SCHEMA (( 'CONFIG_CONTROL_DESIGN' ));
ENDSEC;

DATA;
#1 = CARTESIAN_POINT ( 'NONE',  ( 4.000000000000000000, 4.898587196589412829E-16, 0.000000000000000000 ) ) ;
#2 = DIRECTION ( 'NONE',  ( -0.000000000000000000, -0.000000000000000000, -1.000000000000000000 ) ) ;
#3 = LINE ( 'NONE', #202, #79 ) ;
#4 = ADVANCED_BREP_SHAPE_REPRESENTATION ( '8720', ( #73, #220 ), #41 ) ;
#5 = ADVANCED_FACE ( 'NONE', ( #43 ), #63, .F. ) ;
#6 = APPLICATION_PROTOCOL_DEFINITION ( 'international standard', 'config_control_design', 1994, #253 ) ;
#7 = ORIENTED_EDGE ( 'NONE', *, *, #216, .T. ) ;
#8 = DATE_AND_TIME ( #230, #158 ) ;
#9 = ORIENTED_EDGE ( 'NONE', *, *, #239, .T. ) ;
#10 = DATE_TIME_ROLE ( 'classification_date' ) ;
#11 = APPLICATION_CONTEXT ( 'configuration controlled 3d designs of mechanical parts and assemblies' ) ;
#12 = PERSON_AND_ORGANIZATION_ROLE ( 'classification_officer' ) ;
#13 = PRODUCT_RELATED_PRODUCT_CATEGORY ( 'detail', '', ( #242 ) ) ;
#14 = AXIS2_PLACEMENT_3D ( 'NONE', #142, #97, #152 ) ;
#15 = ADVANCED_FACE ( 'NONE', ( #198, #17 ), #20, .T. ) ;
#16 = DESIGN_CONTEXT ( 'detailed design', #11, 'design' ) ;
#17 = FACE_OUTER_BOUND ( 'NONE', #190, .T. ) ;
#18 = CARTESIAN_POINT ( 'NONE',  ( -2.100000000000000089, 0.000000000000000000, 3.000000000000000000 ) ) ;
#19 = CC_DESIGN_APPROVAL ( #188, ( #208 ) ) ;
#20 = PLANE ( 'NONE',  #163 ) ;
#21 = CARTESIAN_POINT ( 'NONE',  ( -4.000000000000000000, 0.000000000000000000, 0.000000000000000000 ) ) ;
#22 = CARTESIAN_POINT ( 'NONE',  ( 0.000000000000000000, 0.000000000000000000, 3.000000000000000000 ) ) ;
#23 =( NAMED_UNIT ( * ) SI_UNIT ( $, .STERADIAN. ) SOLID_ANGLE_UNIT ( ) );
#24 = AXIS2_PLACEMENT_3D ( 'NONE', #232, #136, #213 ) ;
#25 = EDGE_CURVE ( 'NONE', #184, #229, #215, .T. ) ;
#26 =( NAMED_UNIT ( * ) PLANE_ANGLE_UNIT ( ) SI_UNIT ( $, .RADIAN. ) );
#27 = AXIS2_PLACEMENT_3D ( 'NONE', #118, #44, #100 ) ;
#28 = UNCERTAINTY_MEASURE_WITH_UNIT (LENGTH_MEASURE( 1.000000000000000082E-05 ), #161, 'distance_accuracy_value', 'NONE');
#29 = ORIENTED_EDGE ( 'NONE', *, *, #222, .T. ) ;
#30 = DATE_AND_TIME ( #115, #223 ) ;
#31 = ORIENTED_EDGE ( 'NONE', *, *, #137, .F. ) ;
#32 = EDGE_LOOP ( 'NONE', ( #54, #29, #72, #68 ) ) ;
#33 = CC_DESIGN_PERSON_AND_ORGANIZATION_ASSIGNMENT ( #40, #164, ( #84 ) ) ;
#34 = CIRCLE ( 'NONE', #87, 4.000000000000000000 ) ;
#35 = APPROVAL_DATE_TIME ( #8, #151 ) ;
#36 = ORIENTED_EDGE ( 'NONE', *, *, #89, .F. ) ;
#37 = CC_DESIGN_PERSON_AND_ORGANIZATION_ASSIGNMENT ( #74, #12, ( #208 ) ) ;
#38 = DATE_TIME_ROLE ( 'creation_date' ) ;
#39 = EDGE_LOOP ( 'NONE', ( #31, #109, #246, #154 ) ) ;
#40 = PERSON_AND_ORGANIZATION ( #64, #141 ) ;
#41 =( GEOMETRIC_REPRESENTATION_CONTEXT ( 3 ) GLOBAL_UNCERTAINTY_ASSIGNED_CONTEXT ( ( #28 ) ) GLOBAL_UNIT_ASSIGNED_CONTEXT ( ( #161, #26, #23 ) ) REPRESENTATION_CONTEXT ( 'NONE', 'WORKASPACE' ) );
#42 = CARTESIAN_POINT ( 'NONE',  ( 0.000000000000000000, 0.000000000000000000, 103.0000000000000142 ) ) ;
#43 = FACE_OUTER_BOUND ( 'NONE', #167, .T. ) ;
#44 = DIRECTION ( 'NONE',  ( 0.000000000000000000, 0.000000000000000000, 1.000000000000000000 ) ) ;
#45 = DIRECTION ( 'NONE',  ( 0.000000000000000000, 0.000000000000000000, 1.000000000000000000 ) ) ;
#46 = PLANE ( 'NONE',  #27 ) ;
#47 = APPROVAL_STATUS ( 'not_yet_approved' ) ;
#48 = CARTESIAN_POINT ( 'NONE',  ( 2.100000000000000089, 2.571758278209441957E-16, 103.0000000000000142 ) ) ;
#49 = LOCAL_TIME ( 19, 51, 3.000000000000000000, #210 ) ;
#50 = EDGE_LOOP ( 'NONE', ( #70, #92, #192, #36 ) ) ;
#51 = ADVANCED_FACE ( 'NONE', ( #77 ), #171, .T. ) ;
#52 = ORIENTED_EDGE ( 'NONE', *, *, #159, .F. ) ;
#53 = CIRCLE ( 'NONE', #156, 2.100000000000000089 ) ;
#54 = ORIENTED_EDGE ( 'NONE', *, *, #98, .F. ) ;
#55 = APPROVAL_STATUS ( 'not_yet_approved' ) ;
#56 = ORIENTED_EDGE ( 'NONE', *, *, #25, .T. ) ;
#57 = CYLINDRICAL_SURFACE ( 'NONE', #240, 2.100000000000000089 ) ;
#58 = DIRECTION ( 'NONE',  ( 1.000000000000000000, 0.000000000000000000, 0.000000000000000000 ) ) ;
#59 = CARTESIAN_POINT ( 'NONE',  ( 2.100000000000000089, 2.571758278209441957E-16, 103.0000000000000142 ) ) ;
#60 = CLOSED_SHELL ( 'NONE', ( #51, #145, #179, #15, #5, #66, #133 ) ) ;
#61 = DIRECTION ( 'NONE',  ( 1.000000000000000000, 0.000000000000000000, 0.000000000000000000 ) ) ;
#62 = CC_DESIGN_SECURITY_CLASSIFICATION ( #208, ( #84 ) ) ;
#63 = PLANE ( 'NONE',  #24 ) ;
#64 = PERSON ( 'NEURÈENÝ', 'NEURÈENÝ', 'NEURÈENÝ', ('NEURÈENÝ'), ('NEURÈENÝ'), ('NEURÈENÝ') ) ;
#65 = DIRECTION ( 'NONE',  ( 1.000000000000000000, 0.000000000000000000, 0.000000000000000000 ) ) ;
#66 = ADVANCED_FACE ( 'NONE', ( #211 ), #57, .T. ) ;
#67 = LOCAL_TIME ( 19, 51, 3.000000000000000000, #189 ) ;
#68 = ORIENTED_EDGE ( 'NONE', *, *, #25, .F. ) ;
#69 = PERSON_AND_ORGANIZATION ( #64, #141 ) ;
#70 = ORIENTED_EDGE ( 'NONE', *, *, #216, .F. ) ;
#71 = DATE_AND_TIME ( #113, #67 ) ;
#72 = ORIENTED_EDGE ( 'NONE', *, *, #227, .T. ) ;
#73 = MANIFOLD_SOLID_BREP ( 'Pøidat vysunutím3', #60 ) ;
#74 = PERSON_AND_ORGANIZATION ( #64, #141 ) ;
#75 = EDGE_LOOP ( 'NONE', ( #52, #243 ) ) ;
#76 = CIRCLE ( 'NONE', #180, 2.100000000000000089 ) ;
#77 = FACE_OUTER_BOUND ( 'NONE', #50, .T. ) ;
#78 = PRODUCT_DEFINITION ( 'NEZNÁMÝ', '', #84, #16 ) ;
#79 = VECTOR ( 'NONE', #2, 1000.000000000000000 ) ;
#80 = DIRECTION ( 'NONE',  ( -1.000000000000000000, 0.000000000000000000, 0.000000000000000000 ) ) ;
#81 = CYLINDRICAL_SURFACE ( 'NONE', #203, 4.000000000000000000 ) ;
#82 = PERSON_AND_ORGANIZATION_ROLE ( 'design_owner' ) ;
#83 = CARTESIAN_POINT ( 'NONE',  ( 0.000000000000000000, 0.000000000000000000, 3.000000000000000000 ) ) ;
#84 = PRODUCT_DEFINITION_FORMATION_WITH_SPECIFIED_SOURCE ( 'LIBOVOLNÝ', '', #242, .NOT_KNOWN. ) ;
#85 = DIRECTION ( 'NONE',  ( 1.000000000000000000, 0.000000000000000000, 0.000000000000000000 ) ) ;
#86 = DIRECTION ( 'NONE',  ( 0.000000000000000000, 0.000000000000000000, 1.000000000000000000 ) ) ;
#87 = AXIS2_PLACEMENT_3D ( 'NONE', #221, #238, #178 ) ;
#88 = VERTEX_POINT ( 'NONE', #117 ) ;
#89 = EDGE_CURVE ( 'NONE', #183, #108, #195, .T. ) ;
#90 = AXIS2_PLACEMENT_3D ( 'NONE', #22, #104, #233 ) ;
#91 = DATE_AND_TIME ( #111, #49 ) ;
#92 = ORIENTED_EDGE ( 'NONE', *, *, #137, .T. ) ;
#93 = PERSON_AND_ORGANIZATION ( #64, #141 ) ;
#94 = PERSON_AND_ORGANIZATION ( #64, #141 ) ;
#95 = CIRCLE ( 'NONE', #162, 2.100000000000000089 ) ;
#96 = CC_DESIGN_DATE_AND_TIME_ASSIGNMENT ( #228, #10, ( #208 ) ) ;
#97 = DIRECTION ( 'NONE',  ( -0.000000000000000000, -0.000000000000000000, -1.000000000000000000 ) ) ;
#98 = EDGE_CURVE ( 'NONE', #194, #184, #99, .T. ) ;
#99 = CIRCLE ( 'NONE', #90, 4.000000000000000000 ) ;
#100 = DIRECTION ( 'NONE',  ( 1.000000000000000000, 0.000000000000000000, -0.000000000000000000 ) ) ;
#101 = APPROVAL_PERSON_ORGANIZATION ( #94, #188, #209 ) ;
#102 = DIRECTION ( 'NONE',  ( 1.000000000000000000, 0.000000000000000000, -0.000000000000000000 ) ) ;
#103 = CARTESIAN_POINT ( 'NONE',  ( -4.000000000000000000, 0.000000000000000000, 3.000000000000000000 ) ) ;
#104 = DIRECTION ( 'NONE',  ( 0.000000000000000000, 0.000000000000000000, 1.000000000000000000 ) ) ;
#105 = CC_DESIGN_APPROVAL ( #125, ( #84 ) ) ;
#106 = DIRECTION ( 'NONE',  ( -0.000000000000000000, -0.000000000000000000, -1.000000000000000000 ) ) ;
#107 = CC_DESIGN_DATE_AND_TIME_ASSIGNMENT ( #91, #38, ( #78 ) ) ;
#108 = VERTEX_POINT ( 'NONE', #18 ) ;
#109 = ORIENTED_EDGE ( 'NONE', *, *, #196, .F. ) ;
#110 = CALENDAR_DATE ( 2022, 7, 7 ) ;
#111 = CALENDAR_DATE ( 2022, 7, 7 ) ;
#112 = ORIENTED_EDGE ( 'NONE', *, *, #98, .T. ) ;
#113 = CALENDAR_DATE ( 2022, 7, 7 ) ;
#114 = ORIENTED_EDGE ( 'NONE', *, *, #182, .F. ) ;
#115 = CALENDAR_DATE ( 2022, 7, 7 ) ;
#116 = CARTESIAN_POINT ( 'NONE',  ( -2.100000000000000089, 0.000000000000000000, 103.0000000000000142 ) ) ;
#117 = CARTESIAN_POINT ( 'NONE',  ( 2.100000000000000089, 2.571758278209441957E-16, 3.000000000000000000 ) ) ;
#118 = CARTESIAN_POINT ( 'NONE',  ( 0.000000000000000000, 0.000000000000000000, 103.0000000000000142 ) ) ;
#119 = CARTESIAN_POINT ( 'NONE',  ( 0.000000000000000000, 0.000000000000000000, 0.000000000000000000 ) ) ;
#120 = CC_DESIGN_APPROVAL ( #151, ( #78 ) ) ;
#121 = FACE_OUTER_BOUND ( 'NONE', #224, .T. ) ;
#122 = CARTESIAN_POINT ( 'NONE',  ( 4.000000000000000000, 4.898587196589412829E-16, 3.000000000000000000 ) ) ;
#123 = LINE ( 'NONE', #59, #231 ) ;
#124 = CARTESIAN_POINT ( 'NONE',  ( 0.000000000000000000, 0.000000000000000000, 103.0000000000000142 ) ) ;
#125 = APPROVAL ( #55, 'NEURÈENÝ' ) ;
#126 = CARTESIAN_POINT ( 'NONE',  ( 0.000000000000000000, 0.000000000000000000, 103.0000000000000142 ) ) ;
#127 = PRODUCT_DEFINITION_SHAPE ( 'NONE', 'NONE',  #78 ) ;
#128 = VERTEX_POINT ( 'NONE', #1 ) ;
#129 = EDGE_LOOP ( 'NONE', ( #226, #248, #56, #169 ) ) ;
#130 = CC_DESIGN_PERSON_AND_ORGANIZATION_ASSIGNMENT ( #185, #131, ( #84 ) ) ;
#131 = PERSON_AND_ORGANIZATION_ROLE ( 'design_supplier' ) ;
#132 = APPROVAL_ROLE ( '' ) ;
#133 = ADVANCED_FACE ( 'NONE', ( #121 ), #46, .T. ) ;
#134 = FACE_OUTER_BOUND ( 'NONE', #129, .T. ) ;
#135 = DIRECTION ( 'NONE',  ( -0.000000000000000000, -0.000000000000000000, -1.000000000000000000 ) ) ;
#136 = DIRECTION ( 'NONE',  ( 0.000000000000000000, 0.000000000000000000, 1.000000000000000000 ) ) ;
#137 = EDGE_CURVE ( 'NONE', #187, #88, #123, .T. ) ;
#138 = VECTOR ( 'NONE', #236, 1000.000000000000000 ) ;
#139 = DIRECTION ( 'NONE',  ( 0.000000000000000000, 0.000000000000000000, 1.000000000000000000 ) ) ;
#140 = APPLICATION_PROTOCOL_DEFINITION ( 'international standard', 'config_control_design', 1994, #11 ) ;
#141 = ORGANIZATION ( 'NEURÈENÝ', 'NEURÈENÝ', '' ) ;
#142 = CARTESIAN_POINT ( 'NONE',  ( 0.000000000000000000, 0.000000000000000000, 103.0000000000000142 ) ) ;
#143 = MECHANICAL_CONTEXT ( 'NONE', #253, 'mechanical' ) ;
#144 = DIRECTION ( 'NONE',  ( 0.000000000000000000, 0.000000000000000000, 1.000000000000000000 ) ) ;
#145 = ADVANCED_FACE ( 'NONE', ( #252 ), #81, .T. ) ;
#146 = CARTESIAN_POINT ( 'NONE',  ( 0.000000000000000000, 0.000000000000000000, 3.000000000000000000 ) ) ;
#147 = AXIS2_PLACEMENT_3D ( 'NONE', #119, #219, #160 ) ;
#148 = ORIENTED_EDGE ( 'NONE', *, *, #196, .T. ) ;
#149 = APPROVAL_DATE_TIME ( #71, #125 ) ;
#150 = ORIENTED_EDGE ( 'NONE', *, *, #227, .F. ) ;
#151 = APPROVAL ( #47, 'NEURÈENÝ' ) ;
#152 = DIRECTION ( 'NONE',  ( -1.000000000000000000, 0.000000000000000000, 0.000000000000000000 ) ) ;
#153 = DIRECTION ( 'NONE',  ( 0.000000000000000000, 0.000000000000000000, 1.000000000000000000 ) ) ;
#154 = ORIENTED_EDGE ( 'NONE', *, *, #159, .T. ) ;
#155 = DIRECTION ( 'NONE',  ( 0.000000000000000000, 0.000000000000000000, 1.000000000000000000 ) ) ;
#156 = AXIS2_PLACEMENT_3D ( 'NONE', #83, #139, #177 ) ;
#157 = DIRECTION ( 'NONE',  ( -0.000000000000000000, -0.000000000000000000, -1.000000000000000000 ) ) ;
#158 = LOCAL_TIME ( 19, 51, 3.000000000000000000, #247 ) ;
#159 = EDGE_CURVE ( 'NONE', #108, #88, #95, .T. ) ;
#160 = DIRECTION ( 'NONE',  ( 1.000000000000000000, 0.000000000000000000, 0.000000000000000000 ) ) ;
#161 =( LENGTH_UNIT ( ) NAMED_UNIT ( * ) SI_UNIT ( .MILLI., .METRE. ) );
#162 = AXIS2_PLACEMENT_3D ( 'NONE', #254, #153, #58 ) ;
#163 = AXIS2_PLACEMENT_3D ( 'NONE', #251, #234, #102 ) ;
#164 = PERSON_AND_ORGANIZATION_ROLE ( 'creator' ) ;
#165 = CC_DESIGN_PERSON_AND_ORGANIZATION_ASSIGNMENT ( #69, #245, ( #78 ) ) ;
#166 = COORDINATED_UNIVERSAL_TIME_OFFSET ( 1, 0, .AHEAD. ) ;
#167 = EDGE_LOOP ( 'NONE', ( #114, #150 ) ) ;
#168 = APPROVAL_ROLE ( '' ) ;
#169 = ORIENTED_EDGE ( 'NONE', *, *, #182, .T. ) ;
#170 = APPROVAL_DATE_TIME ( #30, #188 ) ;
#171 = CYLINDRICAL_SURFACE ( 'NONE', #14, 2.100000000000000089 ) ;
#172 = DIRECTION ( 'NONE',  ( -0.000000000000000000, -0.000000000000000000, -1.000000000000000000 ) ) ;
#173 = CIRCLE ( 'NONE', #204, 4.000000000000000000 ) ;
#174 = EDGE_CURVE ( 'NONE', #88, #108, #53, .T. ) ;
#175 = CARTESIAN_POINT ( 'NONE',  ( 0.000000000000000000, 0.000000000000000000, 3.000000000000000000 ) ) ;
#176 = CARTESIAN_POINT ( 'NONE',  ( -2.100000000000000089, 0.000000000000000000, 103.0000000000000142 ) ) ;
#177 = DIRECTION ( 'NONE',  ( 1.000000000000000000, 0.000000000000000000, 0.000000000000000000 ) ) ;
#178 = DIRECTION ( 'NONE',  ( 1.000000000000000000, 0.000000000000000000, 0.000000000000000000 ) ) ;
#179 = ADVANCED_FACE ( 'NONE', ( #134 ), #235, .T. ) ;
#180 = AXIS2_PLACEMENT_3D ( 'NONE', #126, #45, #199 ) ;
#181 = DIRECTION ( 'NONE',  ( -1.000000000000000000, 0.000000000000000000, 0.000000000000000000 ) ) ;
#182 = EDGE_CURVE ( 'NONE', #229, #128, #241, .T. ) ;
#183 = VERTEX_POINT ( 'NONE', #176 ) ;
#184 = VERTEX_POINT ( 'NONE', #103 ) ;
#185 = PERSON_AND_ORGANIZATION ( #64, #141 ) ;
#186 = AXIS2_PLACEMENT_3D ( 'NONE', #124, #144, #85 ) ;
#187 = VERTEX_POINT ( 'NONE', #48 ) ;
#188 = APPROVAL ( #206, 'NEURÈENÝ' ) ;
#189 = COORDINATED_UNIVERSAL_TIME_OFFSET ( 1, 0, .AHEAD. ) ;
#190 = EDGE_LOOP ( 'NONE', ( #9, #112 ) ) ;
#191 = SECURITY_CLASSIFICATION_LEVEL ( 'unclassified' ) ;
#192 = ORIENTED_EDGE ( 'NONE', *, *, #174, .T. ) ;
#193 = LOCAL_TIME ( 19, 51, 3.000000000000000000, #166 ) ;
#194 = VERTEX_POINT ( 'NONE', #122 ) ;
#195 = LINE ( 'NONE', #116, #138 ) ;
#196 = EDGE_CURVE ( 'NONE', #183, #187, #250, .T. ) ;
#197 = DIRECTION ( 'NONE',  ( -0.000000000000000000, -0.000000000000000000, -1.000000000000000000 ) ) ;
#198 = FACE_BOUND ( 'NONE', #75, .T. ) ;
#199 = DIRECTION ( 'NONE',  ( 1.000000000000000000, 0.000000000000000000, 0.000000000000000000 ) ) ;
#200 = APPROVAL_PERSON_ORGANIZATION ( #217, #151, #132 ) ;
#201 = CARTESIAN_POINT ( 'NONE',  ( 0.000000000000000000, 0.000000000000000000, 3.000000000000000000 ) ) ;
#202 = CARTESIAN_POINT ( 'NONE',  ( 4.000000000000000000, 4.898587196589412829E-16, 3.000000000000000000 ) ) ;
#203 = AXIS2_PLACEMENT_3D ( 'NONE', #175, #197, #80 ) ;
#204 = AXIS2_PLACEMENT_3D ( 'NONE', #146, #155, #61 ) ;
#205 = AXIS2_PLACEMENT_3D ( 'NONE', #201, #106, #181 ) ;
#206 = APPROVAL_STATUS ( 'not_yet_approved' ) ;
#207 = VECTOR ( 'NONE', #157, 1000.000000000000000 ) ;
#208 = SECURITY_CLASSIFICATION ( '', '', #191 ) ;
#209 = APPROVAL_ROLE ( '' ) ;
#210 = COORDINATED_UNIVERSAL_TIME_OFFSET ( 1, 0, .AHEAD. ) ;
#211 = FACE_OUTER_BOUND ( 'NONE', #39, .T. ) ;
#212 = CC_DESIGN_PERSON_AND_ORGANIZATION_ASSIGNMENT ( #255, #82, ( #242 ) ) ;
#213 = DIRECTION ( 'NONE',  ( 1.000000000000000000, 0.000000000000000000, -0.000000000000000000 ) ) ;
#214 = CARTESIAN_POINT ( 'NONE',  ( -4.000000000000000000, 0.000000000000000000, 3.000000000000000000 ) ) ;
#215 = LINE ( 'NONE', #214, #207 ) ;
#216 = EDGE_CURVE ( 'NONE', #187, #183, #76, .T. ) ;
#217 = PERSON_AND_ORGANIZATION ( #64, #141 ) ;
#218 = DIRECTION ( 'NONE',  ( -1.000000000000000000, 0.000000000000000000, 0.000000000000000000 ) ) ;
#219 = DIRECTION ( 'NONE',  ( 0.000000000000000000, 0.000000000000000000, 1.000000000000000000 ) ) ;
#220 = AXIS2_PLACEMENT_3D ( 'NONE', #237, #86, #65 ) ;
#221 = CARTESIAN_POINT ( 'NONE',  ( 0.000000000000000000, 0.000000000000000000, 0.000000000000000000 ) ) ;
#222 = EDGE_CURVE ( 'NONE', #194, #128, #3, .T. ) ;
#223 = LOCAL_TIME ( 19, 51, 3.000000000000000000, #225 ) ;
#224 = EDGE_LOOP ( 'NONE', ( #148, #7 ) ) ;
#225 = COORDINATED_UNIVERSAL_TIME_OFFSET ( 1, 0, .AHEAD. ) ;
#226 = ORIENTED_EDGE ( 'NONE', *, *, #222, .F. ) ;
#227 = EDGE_CURVE ( 'NONE', #128, #229, #34, .T. ) ;
#228 = DATE_AND_TIME ( #110, #193 ) ;
#229 = VERTEX_POINT ( 'NONE', #21 ) ;
#230 = CALENDAR_DATE ( 2022, 7, 7 ) ;
#231 = VECTOR ( 'NONE', #172, 1000.000000000000000 ) ;
#232 = CARTESIAN_POINT ( 'NONE',  ( 0.000000000000000000, 0.000000000000000000, 0.000000000000000000 ) ) ;
#233 = DIRECTION ( 'NONE',  ( 1.000000000000000000, 0.000000000000000000, 0.000000000000000000 ) ) ;
#234 = DIRECTION ( 'NONE',  ( 0.000000000000000000, 0.000000000000000000, 1.000000000000000000 ) ) ;
#235 = CYLINDRICAL_SURFACE ( 'NONE', #205, 4.000000000000000000 ) ;
#236 = DIRECTION ( 'NONE',  ( -0.000000000000000000, -0.000000000000000000, -1.000000000000000000 ) ) ;
#237 = CARTESIAN_POINT ( 'NONE',  ( 0.000000000000000000, 0.000000000000000000, 0.000000000000000000 ) ) ;
#238 = DIRECTION ( 'NONE',  ( 0.000000000000000000, 0.000000000000000000, 1.000000000000000000 ) ) ;
#239 = EDGE_CURVE ( 'NONE', #184, #194, #173, .T. ) ;
#240 = AXIS2_PLACEMENT_3D ( 'NONE', #42, #135, #218 ) ;
#241 = CIRCLE ( 'NONE', #147, 4.000000000000000000 ) ;
#242 = PRODUCT ( '8720', '8720', '', ( #143 ) ) ;
#243 = ORIENTED_EDGE ( 'NONE', *, *, #174, .F. ) ;
#244 = APPROVAL_PERSON_ORGANIZATION ( #93, #125, #168 ) ;
#245 = PERSON_AND_ORGANIZATION_ROLE ( 'creator' ) ;
#246 = ORIENTED_EDGE ( 'NONE', *, *, #89, .T. ) ;
#247 = COORDINATED_UNIVERSAL_TIME_OFFSET ( 1, 0, .AHEAD. ) ;
#248 = ORIENTED_EDGE ( 'NONE', *, *, #239, .F. ) ;
#249 = SHAPE_DEFINITION_REPRESENTATION ( #127, #4 ) ;
#250 = CIRCLE ( 'NONE', #186, 2.100000000000000089 ) ;
#251 = CARTESIAN_POINT ( 'NONE',  ( 0.000000000000000000, 0.000000000000000000, 3.000000000000000000 ) ) ;
#252 = FACE_OUTER_BOUND ( 'NONE', #32, .T. ) ;
#253 = APPLICATION_CONTEXT ( 'configuration controlled 3d designs of mechanical parts and assemblies' ) ;
#254 = CARTESIAN_POINT ( 'NONE',  ( 0.000000000000000000, 0.000000000000000000, 3.000000000000000000 ) ) ;
#255 = PERSON_AND_ORGANIZATION ( #64, #141 ) ;
ENDSEC;
END-ISO-10303-21;
