ISO-10303-21;
HEADER;
FILE_DESCRIPTION (( 'STEP AP203' ),
    '1' );
FILE_NAME ('23e7.STEP',
    '2022-07-07T17:33:13',
    ( '' ),
    ( '' ),
    'SwSTEP 2.0',
    'SolidWorks 2019',
    '' );
FILE_SCHEMA (( 'CONFIG_CONTROL_DESIGN' ));
ENDSEC;

DATA;
#1 = EDGE_CURVE ( 'NONE', #233, #75, #199, .T. ) ;
#2 = AXIS2_PLACEMENT_3D ( 'NONE', #164, #245, #247 ) ;
#3 = ORGANIZATION ( 'NEURÈENÝ', 'NEURÈENÝ', '' ) ;
#4 = EDGE_CURVE ( 'NONE', #72, #75, #174, .T. ) ;
#5 = CARTESIAN_POINT ( 'NONE',  ( 7.000000000000000000, 8.572527594031473190E-16, 5.000000000000000000 ) ) ;
#6 = ORIENTED_EDGE ( 'NONE', *, *, #183, .F. ) ;
#7 = DATE_AND_TIME ( #184, #203 ) ;
#8 = DIRECTION ( 'NONE',  ( 1.000000000000000000, 0.000000000000000000, 0.000000000000000000 ) ) ;
#9 = ORIENTED_EDGE ( 'NONE', *, *, #183, .T. ) ;
#10 = DIRECTION ( 'NONE',  ( 0.000000000000000000, 0.000000000000000000, 1.000000000000000000 ) ) ;
#11 = PLANE ( 'NONE',  #217 ) ;
#12 = VERTEX_POINT ( 'NONE', #243 ) ;
#13 = APPROVAL_STATUS ( 'not_yet_approved' ) ;
#14 = CARTESIAN_POINT ( 'NONE',  ( 0.000000000000000000, 0.000000000000000000, 205.0000000000000284 ) ) ;
#15 = AXIS2_PLACEMENT_3D ( 'NONE', #175, #131, #17 ) ;
#16 = CC_DESIGN_APPROVAL ( #139, ( #118 ) ) ;
#17 = DIRECTION ( 'NONE',  ( 1.000000000000000000, 0.000000000000000000, 0.000000000000000000 ) ) ;
#18 = ORIENTED_EDGE ( 'NONE', *, *, #22, .T. ) ;
#19 = PERSON_AND_ORGANIZATION ( #108, #3 ) ;
#20 = ADVANCED_FACE ( 'NONE', ( #44 ), #51, .T. ) ;
#21 = LOCAL_TIME ( 19, 33, 13.00000000000000000, #176 ) ;
#22 = EDGE_CURVE ( 'NONE', #12, #252, #47, .T. ) ;
#23 = APPROVAL_DATE_TIME ( #238, #77 ) ;
#24 = LINE ( 'NONE', #5, #234 ) ;
#25 =( NAMED_UNIT ( * ) PLANE_ANGLE_UNIT ( ) SI_UNIT ( $, .RADIAN. ) );
#26 = DIRECTION ( 'NONE',  ( 0.000000000000000000, 0.000000000000000000, 1.000000000000000000 ) ) ;
#27 = EDGE_CURVE ( 'NONE', #110, #252, #93, .T. ) ;
#28 = EDGE_LOOP ( 'NONE', ( #6, #54, #83, #251 ) ) ;
#29 = FACE_OUTER_BOUND ( 'NONE', #193, .T. ) ;
#30 = DIRECTION ( 'NONE',  ( 0.000000000000000000, 0.000000000000000000, 1.000000000000000000 ) ) ;
#31 = EDGE_LOOP ( 'NONE', ( #155, #9, #55, #49 ) ) ;
#32 = CARTESIAN_POINT ( 'NONE',  ( 0.000000000000000000, 0.000000000000000000, 5.000000000000000000 ) ) ;
#33 = DIRECTION ( 'NONE',  ( 1.000000000000000000, 0.000000000000000000, 0.000000000000000000 ) ) ;
#34 = CALENDAR_DATE ( 2022, 7, 7 ) ;
#35 = VERTEX_POINT ( 'NONE', #173 ) ;
#36 = ORIENTED_EDGE ( 'NONE', *, *, #178, .T. ) ;
#37 = LOCAL_TIME ( 19, 33, 13.00000000000000000, #248 ) ;
#38 = CC_DESIGN_PERSON_AND_ORGANIZATION_ASSIGNMENT ( #220, #42, ( #160 ) ) ;
#39 = AXIS2_PLACEMENT_3D ( 'NONE', #133, #41, #85 ) ;
#40 = CARTESIAN_POINT ( 'NONE',  ( 4.000000000000000000, 4.898587196589412829E-16, 205.0000000000000284 ) ) ;
#41 = DIRECTION ( 'NONE',  ( -0.000000000000000000, -0.000000000000000000, -1.000000000000000000 ) ) ;
#42 = PERSON_AND_ORGANIZATION_ROLE ( 'creator' ) ;
#43 = CARTESIAN_POINT ( 'NONE',  ( 0.000000000000000000, 0.000000000000000000, 5.000000000000000000 ) ) ;
#44 = FACE_OUTER_BOUND ( 'NONE', #135, .T. ) ;
#45 =( LENGTH_UNIT ( ) NAMED_UNIT ( * ) SI_UNIT ( .MILLI., .METRE. ) );
#46 = DIRECTION ( 'NONE',  ( -1.000000000000000000, 0.000000000000000000, 0.000000000000000000 ) ) ;
#47 = CIRCLE ( 'NONE', #2, 4.000000000000000000 ) ;
#48 = APPROVAL_STATUS ( 'not_yet_approved' ) ;
#49 = ORIENTED_EDGE ( 'NONE', *, *, #4, .F. ) ;
#50 = PERSON_AND_ORGANIZATION ( #108, #3 ) ;
#51 = PLANE ( 'NONE',  #119 ) ;
#52 = EDGE_CURVE ( 'NONE', #75, #233, #91, .T. ) ;
#53 = CALENDAR_DATE ( 2022, 7, 7 ) ;
#54 = ORIENTED_EDGE ( 'NONE', *, *, #154, .F. ) ;
#55 = ORIENTED_EDGE ( 'NONE', *, *, #1, .T. ) ;
#56 = APPROVAL_DATE_TIME ( #134, #99 ) ;
#57 = AXIS2_PLACEMENT_3D ( 'NONE', #202, #26, #109 ) ;
#58 = PERSON_AND_ORGANIZATION_ROLE ( 'classification_officer' ) ;
#59 = CC_DESIGN_PERSON_AND_ORGANIZATION_ASSIGNMENT ( #90, #58, ( #118 ) ) ;
#60 = CLOSED_SHELL ( 'NONE', ( #237, #126, #206, #213, #96, #165, #20 ) ) ;
#61 =( GEOMETRIC_REPRESENTATION_CONTEXT ( 3 ) GLOBAL_UNCERTAINTY_ASSIGNED_CONTEXT ( ( #231 ) ) GLOBAL_UNIT_ASSIGNED_CONTEXT ( ( #45, #25, #81 ) ) REPRESENTATION_CONTEXT ( 'NONE', 'WORKASPACE' ) );
#62 = CARTESIAN_POINT ( 'NONE',  ( 0.000000000000000000, 0.000000000000000000, 205.0000000000000284 ) ) ;
#63 = FACE_OUTER_BOUND ( 'NONE', #31, .T. ) ;
#64 = DIRECTION ( 'NONE',  ( 0.000000000000000000, 0.000000000000000000, 1.000000000000000000 ) ) ;
#65 = DIRECTION ( 'NONE',  ( 0.000000000000000000, 0.000000000000000000, 1.000000000000000000 ) ) ;
#66 = ORIENTED_EDGE ( 'NONE', *, *, #197, .T. ) ;
#67 = DIRECTION ( 'NONE',  ( 1.000000000000000000, 0.000000000000000000, -0.000000000000000000 ) ) ;
#68 = ORIENTED_EDGE ( 'NONE', *, *, #216, .T. ) ;
#69 = DIRECTION ( 'NONE',  ( 1.000000000000000000, 0.000000000000000000, -0.000000000000000000 ) ) ;
#70 = PRODUCT_RELATED_PRODUCT_CATEGORY ( 'detail', '', ( #236 ) ) ;
#71 = AXIS2_PLACEMENT_3D ( 'NONE', #62, #181, #204 ) ;
#72 = VERTEX_POINT ( 'NONE', #241 ) ;
#73 = FACE_OUTER_BOUND ( 'NONE', #28, .T. ) ;
#74 = DATE_TIME_ROLE ( 'classification_date' ) ;
#75 = VERTEX_POINT ( 'NONE', #250 ) ;
#76 = SHAPE_DEFINITION_REPRESENTATION ( #242, #143 ) ;
#77 = APPROVAL ( #13, 'NEURÈENÝ' ) ;
#78 = AXIS2_PLACEMENT_3D ( 'NONE', #153, #136, #115 ) ;
#79 = APPLICATION_PROTOCOL_DEFINITION ( 'international standard', 'config_control_design', 1994, #103 ) ;
#80 = CYLINDRICAL_SURFACE ( 'NONE', #39, 7.000000000000000000 ) ;
#81 =( NAMED_UNIT ( * ) SI_UNIT ( $, .STERADIAN. ) SOLID_ANGLE_UNIT ( ) );
#82 = DIRECTION ( 'NONE',  ( -0.000000000000000000, -0.000000000000000000, -1.000000000000000000 ) ) ;
#83 = ORIENTED_EDGE ( 'NONE', *, *, #4, .T. ) ;
#84 = DATE_TIME_ROLE ( 'creation_date' ) ;
#85 = DIRECTION ( 'NONE',  ( -1.000000000000000000, 0.000000000000000000, 0.000000000000000000 ) ) ;
#86 = CC_DESIGN_DATE_AND_TIME_ASSIGNMENT ( #122, #74, ( #118 ) ) ;
#87 = EDGE_LOOP ( 'NONE', ( #113, #186, #137, #189 ) ) ;
#88 = DIRECTION ( 'NONE',  ( -0.000000000000000000, -0.000000000000000000, -1.000000000000000000 ) ) ;
#89 = CARTESIAN_POINT ( 'NONE',  ( 0.000000000000000000, 0.000000000000000000, 5.000000000000000000 ) ) ;
#90 = PERSON_AND_ORGANIZATION ( #108, #3 ) ;
#91 = CIRCLE ( 'NONE', #117, 7.000000000000000000 ) ;
#92 = ORIENTED_EDGE ( 'NONE', *, *, #197, .F. ) ;
#93 = LINE ( 'NONE', #111, #179 ) ;
#94 = ORIENTED_EDGE ( 'NONE', *, *, #1, .F. ) ;
#95 = ORIENTED_EDGE ( 'NONE', *, *, #215, .F. ) ;
#96 = ADVANCED_FACE ( 'NONE', ( #163 ), #223, .F. ) ;
#97 = LOCAL_TIME ( 19, 33, 13.00000000000000000, #162 ) ;
#98 = PERSON_AND_ORGANIZATION ( #108, #3 ) ;
#99 = APPROVAL ( #48, 'NEURÈENÝ' ) ;
#100 = APPROVAL_PERSON_ORGANIZATION ( #138, #99, #211 ) ;
#101 = CC_DESIGN_PERSON_AND_ORGANIZATION_ASSIGNMENT ( #98, #235, ( #192 ) ) ;
#102 = APPROVAL_ROLE ( '' ) ;
#103 = APPLICATION_CONTEXT ( 'configuration controlled 3d designs of mechanical parts and assemblies' ) ;
#104 = CYLINDRICAL_SURFACE ( 'NONE', #107, 7.000000000000000000 ) ;
#105 = CC_DESIGN_APPROVAL ( #77, ( #160 ) ) ;
#106 = COORDINATED_UNIVERSAL_TIME_OFFSET ( 1, 0, .AHEAD. ) ;
#107 = AXIS2_PLACEMENT_3D ( 'NONE', #147, #219, #168 ) ;
#108 = PERSON ( 'NEURÈENÝ', 'NEURÈENÝ', 'NEURÈENÝ', ('NEURÈENÝ'), ('NEURÈENÝ'), ('NEURÈENÝ') ) ;
#109 = DIRECTION ( 'NONE',  ( 1.000000000000000000, 0.000000000000000000, 0.000000000000000000 ) ) ;
#110 = VERTEX_POINT ( 'NONE', #151 ) ;
#111 = CARTESIAN_POINT ( 'NONE',  ( -4.000000000000000000, 0.000000000000000000, 205.0000000000000284 ) ) ;
#112 = APPROVAL_DATE_TIME ( #196, #139 ) ;
#113 = ORIENTED_EDGE ( 'NONE', *, *, #216, .F. ) ;
#114 = APPLICATION_PROTOCOL_DEFINITION ( 'international standard', 'config_control_design', 1994, #144 ) ;
#115 = DIRECTION ( 'NONE',  ( 1.000000000000000000, 0.000000000000000000, 0.000000000000000000 ) ) ;
#116 = PERSON_AND_ORGANIZATION ( #108, #3 ) ;
#117 = AXIS2_PLACEMENT_3D ( 'NONE', #185, #128, #8 ) ;
#118 = SECURITY_CLASSIFICATION ( '', '', #230 ) ;
#119 = AXIS2_PLACEMENT_3D ( 'NONE', #14, #200, #69 ) ;
#120 = APPROVAL_ROLE ( '' ) ;
#121 = ORIENTED_EDGE ( 'NONE', *, *, #52, .F. ) ;
#122 = DATE_AND_TIME ( #53, #214 ) ;
#123 = AXIS2_PLACEMENT_3D ( 'NONE', #182, #30, #170 ) ;
#124 = CC_DESIGN_DATE_AND_TIME_ASSIGNMENT ( #7, #84, ( #160 ) ) ;
#125 = APPROVAL_PERSON_ORGANIZATION ( #116, #139, #120 ) ;
#126 = ADVANCED_FACE ( 'NONE', ( #63 ), #104, .T. ) ;
#127 = AXIS2_PLACEMENT_3D ( 'NONE', #239, #65, #67 ) ;
#128 = DIRECTION ( 'NONE',  ( 0.000000000000000000, 0.000000000000000000, 1.000000000000000000 ) ) ;
#129 = DIRECTION ( 'NONE',  ( 1.000000000000000000, 0.000000000000000000, 0.000000000000000000 ) ) ;
#130 = DIRECTION ( 'NONE',  ( -0.000000000000000000, -0.000000000000000000, -1.000000000000000000 ) ) ;
#131 = DIRECTION ( 'NONE',  ( 0.000000000000000000, 0.000000000000000000, 1.000000000000000000 ) ) ;
#132 = DIRECTION ( 'NONE',  ( 0.000000000000000000, 0.000000000000000000, 1.000000000000000000 ) ) ;
#133 = CARTESIAN_POINT ( 'NONE',  ( 0.000000000000000000, 0.000000000000000000, 5.000000000000000000 ) ) ;
#134 = DATE_AND_TIME ( #195, #21 ) ;
#135 = EDGE_LOOP ( 'NONE', ( #149, #66 ) ) ;
#136 = DIRECTION ( 'NONE',  ( 0.000000000000000000, 0.000000000000000000, 1.000000000000000000 ) ) ;
#137 = ORIENTED_EDGE ( 'NONE', *, *, #27, .T. ) ;
#138 = PERSON_AND_ORGANIZATION ( #108, #3 ) ;
#139 = APPROVAL ( #171, 'NEURÈENÝ' ) ;
#140 = AXIS2_PLACEMENT_3D ( 'NONE', #145, #210, #46 ) ;
#141 = CC_DESIGN_PERSON_AND_ORGANIZATION_ASSIGNMENT ( #50, #150, ( #236 ) ) ;
#142 = CC_DESIGN_APPROVAL ( #99, ( #192 ) ) ;
#143 = ADVANCED_BREP_SHAPE_REPRESENTATION ( '23e7', ( #229, #198 ), #61 ) ;
#144 = APPLICATION_CONTEXT ( 'configuration controlled 3d designs of mechanical parts and assemblies' ) ;
#145 = CARTESIAN_POINT ( 'NONE',  ( 0.000000000000000000, 0.000000000000000000, 205.0000000000000284 ) ) ;
#146 = CALENDAR_DATE ( 2022, 7, 7 ) ;
#147 = CARTESIAN_POINT ( 'NONE',  ( 0.000000000000000000, 0.000000000000000000, 5.000000000000000000 ) ) ;
#148 = EDGE_CURVE ( 'NONE', #110, #249, #158, .T. ) ;
#149 = ORIENTED_EDGE ( 'NONE', *, *, #148, .T. ) ;
#150 = PERSON_AND_ORGANIZATION_ROLE ( 'design_owner' ) ;
#151 = CARTESIAN_POINT ( 'NONE',  ( -4.000000000000000000, 0.000000000000000000, 205.0000000000000284 ) ) ;
#152 = CC_DESIGN_SECURITY_CLASSIFICATION ( #118, ( #192 ) ) ;
#153 = CARTESIAN_POINT ( 'NONE',  ( 0.000000000000000000, 0.000000000000000000, 205.0000000000000284 ) ) ;
#154 = EDGE_CURVE ( 'NONE', #72, #35, #225, .T. ) ;
#155 = ORIENTED_EDGE ( 'NONE', *, *, #178, .F. ) ;
#156 = APPROVAL_PERSON_ORGANIZATION ( #190, #77, #102 ) ;
#157 = CC_DESIGN_PERSON_AND_ORGANIZATION_ASSIGNMENT ( #19, #255, ( #192 ) ) ;
#158 = CIRCLE ( 'NONE', #78, 4.000000000000000000 ) ;
#159 = VECTOR ( 'NONE', #88, 1000.000000000000000 ) ;
#160 = PRODUCT_DEFINITION ( 'NEZNÁMÝ', '', #192, #207 ) ;
#161 = CIRCLE ( 'NONE', #180, 7.000000000000000000 ) ;
#162 = COORDINATED_UNIVERSAL_TIME_OFFSET ( 1, 0, .AHEAD. ) ;
#163 = FACE_OUTER_BOUND ( 'NONE', #232, .T. ) ;
#164 = CARTESIAN_POINT ( 'NONE',  ( 0.000000000000000000, 0.000000000000000000, 5.000000000000000000 ) ) ;
#165 = ADVANCED_FACE ( 'NONE', ( #191 ), #228, .T. ) ;
#166 = CARTESIAN_POINT ( 'NONE',  ( -7.000000000000000000, 0.000000000000000000, 5.000000000000000000 ) ) ;
#167 = CARTESIAN_POINT ( 'NONE',  ( -4.000000000000000000, 0.000000000000000000, 5.000000000000000000 ) ) ;
#168 = DIRECTION ( 'NONE',  ( -1.000000000000000000, 0.000000000000000000, 0.000000000000000000 ) ) ;
#169 = CARTESIAN_POINT ( 'NONE',  ( 7.000000000000000000, 8.572527594031473190E-16, 0.000000000000000000 ) ) ;
#170 = DIRECTION ( 'NONE',  ( 1.000000000000000000, 0.000000000000000000, 0.000000000000000000 ) ) ;
#171 = APPROVAL_STATUS ( 'not_yet_approved' ) ;
#172 = ORIENTED_EDGE ( 'NONE', *, *, #27, .F. ) ;
#173 = CARTESIAN_POINT ( 'NONE',  ( 7.000000000000000000, 8.572527594031473190E-16, 5.000000000000000000 ) ) ;
#174 = LINE ( 'NONE', #166, #218 ) ;
#175 = CARTESIAN_POINT ( 'NONE',  ( 0.000000000000000000, 0.000000000000000000, 0.000000000000000000 ) ) ;
#176 = COORDINATED_UNIVERSAL_TIME_OFFSET ( 1, 0, .AHEAD. ) ;
#177 = CIRCLE ( 'NONE', #254, 4.000000000000000000 ) ;
#178 = EDGE_CURVE ( 'NONE', #35, #72, #161, .T. ) ;
#179 = VECTOR ( 'NONE', #130, 1000.000000000000000 ) ;
#180 = AXIS2_PLACEMENT_3D ( 'NONE', #43, #221, #33 ) ;
#181 = DIRECTION ( 'NONE',  ( -0.000000000000000000, -0.000000000000000000, -1.000000000000000000 ) ) ;
#182 = CARTESIAN_POINT ( 'NONE',  ( 0.000000000000000000, 0.000000000000000000, 5.000000000000000000 ) ) ;
#183 = EDGE_CURVE ( 'NONE', #35, #233, #24, .T. ) ;
#184 = CALENDAR_DATE ( 2022, 7, 7 ) ;
#185 = CARTESIAN_POINT ( 'NONE',  ( 0.000000000000000000, 0.000000000000000000, 0.000000000000000000 ) ) ;
#186 = ORIENTED_EDGE ( 'NONE', *, *, #148, .F. ) ;
#187 = MECHANICAL_CONTEXT ( 'NONE', #103, 'mechanical' ) ;
#188 = FACE_OUTER_BOUND ( 'NONE', #194, .T. ) ;
#189 = ORIENTED_EDGE ( 'NONE', *, *, #215, .T. ) ;
#190 = PERSON_AND_ORGANIZATION ( #108, #3 ) ;
#191 = FACE_OUTER_BOUND ( 'NONE', #87, .T. ) ;
#192 = PRODUCT_DEFINITION_FORMATION_WITH_SPECIFIED_SOURCE ( 'LIBOVOLNÝ', '', #236, .NOT_KNOWN. ) ;
#193 = EDGE_LOOP ( 'NONE', ( #92, #68, #18, #172 ) ) ;
#194 = EDGE_LOOP ( 'NONE', ( #226, #36 ) ) ;
#195 = CALENDAR_DATE ( 2022, 7, 7 ) ;
#196 = DATE_AND_TIME ( #34, #37 ) ;
#197 = EDGE_CURVE ( 'NONE', #249, #110, #224, .T. ) ;
#198 = AXIS2_PLACEMENT_3D ( 'NONE', #240, #64, #129 ) ;
#199 = CIRCLE ( 'NONE', #15, 7.000000000000000000 ) ;
#200 = DIRECTION ( 'NONE',  ( 0.000000000000000000, 0.000000000000000000, 1.000000000000000000 ) ) ;
#201 = CARTESIAN_POINT ( 'NONE',  ( 4.000000000000000000, 4.898587196589412829E-16, 205.0000000000000284 ) ) ;
#202 = CARTESIAN_POINT ( 'NONE',  ( 0.000000000000000000, 0.000000000000000000, 205.0000000000000284 ) ) ;
#203 = LOCAL_TIME ( 19, 33, 13.00000000000000000, #106 ) ;
#204 = DIRECTION ( 'NONE',  ( -1.000000000000000000, 0.000000000000000000, 0.000000000000000000 ) ) ;
#205 = FACE_BOUND ( 'NONE', #212, .T. ) ;
#206 = ADVANCED_FACE ( 'NONE', ( #73 ), #80, .T. ) ;
#207 = DESIGN_CONTEXT ( 'detailed design', #144, 'design' ) ;
#208 = ORIENTED_EDGE ( 'NONE', *, *, #22, .F. ) ;
#209 = DIRECTION ( 'NONE',  ( 1.000000000000000000, 0.000000000000000000, -0.000000000000000000 ) ) ;
#210 = DIRECTION ( 'NONE',  ( -0.000000000000000000, -0.000000000000000000, -1.000000000000000000 ) ) ;
#211 = APPROVAL_ROLE ( '' ) ;
#212 = EDGE_LOOP ( 'NONE', ( #95, #208 ) ) ;
#213 = ADVANCED_FACE ( 'NONE', ( #205, #188 ), #11, .T. ) ;
#214 = LOCAL_TIME ( 19, 33, 13.00000000000000000, #253 ) ;
#215 = EDGE_CURVE ( 'NONE', #252, #12, #177, .T. ) ;
#216 = EDGE_CURVE ( 'NONE', #249, #12, #244, .T. ) ;
#217 = AXIS2_PLACEMENT_3D ( 'NONE', #89, #10, #209 ) ;
#218 = VECTOR ( 'NONE', #222, 1000.000000000000000 ) ;
#219 = DIRECTION ( 'NONE',  ( -0.000000000000000000, -0.000000000000000000, -1.000000000000000000 ) ) ;
#220 = PERSON_AND_ORGANIZATION ( #108, #3 ) ;
#221 = DIRECTION ( 'NONE',  ( 0.000000000000000000, 0.000000000000000000, 1.000000000000000000 ) ) ;
#222 = DIRECTION ( 'NONE',  ( -0.000000000000000000, -0.000000000000000000, -1.000000000000000000 ) ) ;
#223 = PLANE ( 'NONE',  #127 ) ;
#224 = CIRCLE ( 'NONE', #57, 4.000000000000000000 ) ;
#225 = CIRCLE ( 'NONE', #123, 7.000000000000000000 ) ;
#226 = ORIENTED_EDGE ( 'NONE', *, *, #154, .T. ) ;
#227 = DIRECTION ( 'NONE',  ( 1.000000000000000000, 0.000000000000000000, 0.000000000000000000 ) ) ;
#228 = CYLINDRICAL_SURFACE ( 'NONE', #140, 4.000000000000000000 ) ;
#229 = MANIFOLD_SOLID_BREP ( 'Pøidat vysunutím3', #60 ) ;
#230 = SECURITY_CLASSIFICATION_LEVEL ( 'unclassified' ) ;
#231 = UNCERTAINTY_MEASURE_WITH_UNIT (LENGTH_MEASURE( 1.000000000000000082E-05 ), #45, 'distance_accuracy_value', 'NONE');
#232 = EDGE_LOOP ( 'NONE', ( #121, #94 ) ) ;
#233 = VERTEX_POINT ( 'NONE', #169 ) ;
#234 = VECTOR ( 'NONE', #82, 1000.000000000000000 ) ;
#235 = PERSON_AND_ORGANIZATION_ROLE ( 'design_supplier' ) ;
#236 = PRODUCT ( '23e7', '23e7', '', ( #187 ) ) ;
#237 = ADVANCED_FACE ( 'NONE', ( #29 ), #246, .T. ) ;
#238 = DATE_AND_TIME ( #146, #97 ) ;
#239 = CARTESIAN_POINT ( 'NONE',  ( 0.000000000000000000, 0.000000000000000000, 0.000000000000000000 ) ) ;
#240 = CARTESIAN_POINT ( 'NONE',  ( 0.000000000000000000, 0.000000000000000000, 0.000000000000000000 ) ) ;
#241 = CARTESIAN_POINT ( 'NONE',  ( -7.000000000000000000, 0.000000000000000000, 5.000000000000000000 ) ) ;
#242 = PRODUCT_DEFINITION_SHAPE ( 'NONE', 'NONE',  #160 ) ;
#243 = CARTESIAN_POINT ( 'NONE',  ( 4.000000000000000000, 4.898587196589412829E-16, 5.000000000000000000 ) ) ;
#244 = LINE ( 'NONE', #201, #159 ) ;
#245 = DIRECTION ( 'NONE',  ( 0.000000000000000000, 0.000000000000000000, 1.000000000000000000 ) ) ;
#246 = CYLINDRICAL_SURFACE ( 'NONE', #71, 4.000000000000000000 ) ;
#247 = DIRECTION ( 'NONE',  ( 1.000000000000000000, 0.000000000000000000, 0.000000000000000000 ) ) ;
#248 = COORDINATED_UNIVERSAL_TIME_OFFSET ( 1, 0, .AHEAD. ) ;
#249 = VERTEX_POINT ( 'NONE', #40 ) ;
#250 = CARTESIAN_POINT ( 'NONE',  ( -7.000000000000000000, 0.000000000000000000, 0.000000000000000000 ) ) ;
#251 = ORIENTED_EDGE ( 'NONE', *, *, #52, .T. ) ;
#252 = VERTEX_POINT ( 'NONE', #167 ) ;
#253 = COORDINATED_UNIVERSAL_TIME_OFFSET ( 1, 0, .AHEAD. ) ;
#254 = AXIS2_PLACEMENT_3D ( 'NONE', #32, #132, #227 ) ;
#255 = PERSON_AND_ORGANIZATION_ROLE ( 'creator' ) ;
ENDSEC;
END-ISO-10303-21;
