ISO-10303-21;
HEADER;
FILE_DESCRIPTION (( 'STEP AP203' ),
    '1' );
FILE_NAME ('370f.STEP',
    '2022-07-07T17:41:45',
    ( '' ),
    ( '' ),
    'SwSTEP 2.0',
    'SolidWorks 2019',
    '' );
FILE_SCHEMA (( 'CONFIG_CONTROL_DESIGN' ));
ENDSEC;

DATA;
#1 = AXIS2_PLACEMENT_3D ( 'NONE', #39, #144, #255 ) ;
#2 = COORDINATED_UNIVERSAL_TIME_OFFSET ( 1, 0, .AHEAD. ) ;
#3 = DIRECTION ( 'NONE',  ( 0.000000000000000000, 0.000000000000000000, 1.000000000000000000 ) ) ;
#4 = ORIENTED_EDGE ( 'NONE', *, *, #71, .F. ) ;
#5 = DATE_TIME_ROLE ( 'classification_date' ) ;
#6 = VERTEX_POINT ( 'NONE', #171 ) ;
#7 = ORIENTED_EDGE ( 'NONE', *, *, #163, .T. ) ;
#8 = CIRCLE ( 'NONE', #157, 2.750000000000000000 ) ;
#9 = APPROVAL ( #36, 'NEURÈENÝ' ) ;
#10 = ORIENTED_EDGE ( 'NONE', *, *, #163, .F. ) ;
#11 = CIRCLE ( 'NONE', #1, 5.000000000000000000 ) ;
#12 = DIRECTION ( 'NONE',  ( 0.000000000000000000, 0.000000000000000000, 1.000000000000000000 ) ) ;
#13 = EDGE_CURVE ( 'NONE', #88, #239, #46, .T. ) ;
#14 = CARTESIAN_POINT ( 'NONE',  ( 0.000000000000000000, 0.000000000000000000, 3.000000000000000000 ) ) ;
#15 = DESIGN_CONTEXT ( 'detailed design', #85, 'design' ) ;
#16 = CARTESIAN_POINT ( 'NONE',  ( 0.000000000000000000, 0.000000000000000000, 3.000000000000000000 ) ) ;
#17 = DIRECTION ( 'NONE',  ( 1.000000000000000000, 0.000000000000000000, -0.000000000000000000 ) ) ;
#18 = LINE ( 'NONE', #176, #186 ) ;
#19 = AXIS2_PLACEMENT_3D ( 'NONE', #16, #136, #138 ) ;
#20 = APPROVAL_DATE_TIME ( #197, #169 ) ;
#21 = DIRECTION ( 'NONE',  ( 1.000000000000000000, 0.000000000000000000, 0.000000000000000000 ) ) ;
#22 = PERSON_AND_ORGANIZATION ( #226, #97 ) ;
#23 = CIRCLE ( 'NONE', #208, 5.000000000000000000 ) ;
#24 = PERSON_AND_ORGANIZATION_ROLE ( 'design_owner' ) ;
#25 = EDGE_LOOP ( 'NONE', ( #223, #131, #108, #221 ) ) ;
#26 = CC_DESIGN_PERSON_AND_ORGANIZATION_ASSIGNMENT ( #103, #101, ( #105 ) ) ;
#27 = ORIENTED_EDGE ( 'NONE', *, *, #13, .F. ) ;
#28 = VECTOR ( 'NONE', #92, 1000.000000000000000 ) ;
#29 = FACE_BOUND ( 'NONE', #184, .T. ) ;
#30 = CARTESIAN_POINT ( 'NONE',  ( 0.000000000000000000, 0.000000000000000000, 0.000000000000000000 ) ) ;
#31 = CYLINDRICAL_SURFACE ( 'NONE', #19, 5.000000000000000000 ) ;
#32 = EDGE_CURVE ( 'NONE', #70, #65, #233, .T. ) ;
#33 = CC_DESIGN_APPROVAL ( #126, ( #37 ) ) ;
#34 = DIRECTION ( 'NONE',  ( 1.000000000000000000, 0.000000000000000000, -0.000000000000000000 ) ) ;
#35 = DIRECTION ( 'NONE',  ( 1.000000000000000000, 0.000000000000000000, 0.000000000000000000 ) ) ;
#36 = APPROVAL_STATUS ( 'not_yet_approved' ) ;
#37 = SECURITY_CLASSIFICATION ( '', '', #205 ) ;
#38 = DIRECTION ( 'NONE',  ( 1.000000000000000000, 0.000000000000000000, 0.000000000000000000 ) ) ;
#39 = CARTESIAN_POINT ( 'NONE',  ( 0.000000000000000000, 0.000000000000000000, 3.000000000000000000 ) ) ;
#40 = DATE_AND_TIME ( #61, #150 ) ;
#41 =( GEOMETRIC_REPRESENTATION_CONTEXT ( 3 ) GLOBAL_UNCERTAINTY_ASSIGNED_CONTEXT ( ( #132 ) ) GLOBAL_UNIT_ASSIGNED_CONTEXT ( ( #121, #237, #234 ) ) REPRESENTATION_CONTEXT ( 'NONE', 'WORKASPACE' ) );
#42 = PERSON_AND_ORGANIZATION ( #226, #97 ) ;
#43 = ORIENTED_EDGE ( 'NONE', *, *, #137, .T. ) ;
#44 = COORDINATED_UNIVERSAL_TIME_OFFSET ( 1, 0, .AHEAD. ) ;
#45 = EDGE_CURVE ( 'NONE', #239, #83, #170, .T. ) ;
#46 = LINE ( 'NONE', #206, #212 ) ;
#47 = ADVANCED_FACE ( 'NONE', ( #76 ), #116, .T. ) ;
#48 = DIRECTION ( 'NONE',  ( 1.000000000000000000, 0.000000000000000000, 0.000000000000000000 ) ) ;
#49 = CC_DESIGN_PERSON_AND_ORGANIZATION_ASSIGNMENT ( #238, #145, ( #128 ) ) ;
#50 = PRODUCT ( '370f', '370f', '', ( #58 ) ) ;
#51 = DIRECTION ( 'NONE',  ( -0.000000000000000000, -0.000000000000000000, -1.000000000000000000 ) ) ;
#52 = CARTESIAN_POINT ( 'NONE',  ( -5.000000000000000000, 0.000000000000000000, 3.000000000000000000 ) ) ;
#53 = AXIS2_PLACEMENT_3D ( 'NONE', #114, #115, #34 ) ;
#54 = CC_DESIGN_PERSON_AND_ORGANIZATION_ASSIGNMENT ( #219, #123, ( #128 ) ) ;
#55 = DIRECTION ( 'NONE',  ( 0.000000000000000000, 0.000000000000000000, 1.000000000000000000 ) ) ;
#56 = PLANE ( 'NONE',  #202 ) ;
#57 = APPROVAL_STATUS ( 'not_yet_approved' ) ;
#58 = MECHANICAL_CONTEXT ( 'NONE', #195, 'mechanical' ) ;
#59 = DIRECTION ( 'NONE',  ( 0.000000000000000000, 0.000000000000000000, 1.000000000000000000 ) ) ;
#60 = EDGE_CURVE ( 'NONE', #88, #185, #86, .T. ) ;
#61 = CALENDAR_DATE ( 2022, 7, 7 ) ;
#62 = ORIENTED_EDGE ( 'NONE', *, *, #243, .T. ) ;
#63 = DIRECTION ( 'NONE',  ( 0.000000000000000000, 0.000000000000000000, 1.000000000000000000 ) ) ;
#64 = CIRCLE ( 'NONE', #69, 5.000000000000000000 ) ;
#65 = VERTEX_POINT ( 'NONE', #90 ) ;
#66 = ORIENTED_EDGE ( 'NONE', *, *, #60, .F. ) ;
#67 = SHAPE_DEFINITION_REPRESENTATION ( #110, #80 ) ;
#68 = ORIENTED_EDGE ( 'NONE', *, *, #75, .F. ) ;
#69 = AXIS2_PLACEMENT_3D ( 'NONE', #139, #12, #175 ) ;
#70 = VERTEX_POINT ( 'NONE', #52 ) ;
#71 = EDGE_CURVE ( 'NONE', #83, #239, #8, .T. ) ;
#72 = DIRECTION ( 'NONE',  ( -0.000000000000000000, -0.000000000000000000, -1.000000000000000000 ) ) ;
#73 = LOCAL_TIME ( 19, 41, 45.00000000000000000, #173 ) ;
#74 = CARTESIAN_POINT ( 'NONE',  ( 2.750000000000000000, 3.367778697655221012E-16, 3.000000000000000000 ) ) ;
#75 = EDGE_CURVE ( 'NONE', #6, #82, #18, .T. ) ;
#76 = FACE_OUTER_BOUND ( 'NONE', #166, .T. ) ;
#77 = PLANE ( 'NONE',  #53 ) ;
#78 = DIRECTION ( 'NONE',  ( -1.000000000000000000, 0.000000000000000000, 0.000000000000000000 ) ) ;
#79 = PLANE ( 'NONE',  #193 ) ;
#80 = ADVANCED_BREP_SHAPE_REPRESENTATION ( '370f', ( #151, #189 ), #41 ) ;
#81 = ORIENTED_EDGE ( 'NONE', *, *, #71, .T. ) ;
#82 = VERTEX_POINT ( 'NONE', #214 ) ;
#83 = VERTEX_POINT ( 'NONE', #74 ) ;
#84 = ORIENTED_EDGE ( 'NONE', *, *, #178, .T. ) ;
#85 = APPLICATION_CONTEXT ( 'configuration controlled 3d designs of mechanical parts and assemblies' ) ;
#86 = CIRCLE ( 'NONE', #122, 2.750000000000000000 ) ;
#87 = ORIENTED_EDGE ( 'NONE', *, *, #13, .T. ) ;
#88 = VERTEX_POINT ( 'NONE', #152 ) ;
#89 = PERSON_AND_ORGANIZATION ( #226, #97 ) ;
#90 = CARTESIAN_POINT ( 'NONE',  ( -5.000000000000000000, 0.000000000000000000, 0.000000000000000000 ) ) ;
#91 = ADVANCED_FACE ( 'NONE', ( #179 ), #96, .T. ) ;
#92 = DIRECTION ( 'NONE',  ( -0.000000000000000000, -0.000000000000000000, -1.000000000000000000 ) ) ;
#93 = PRODUCT_RELATED_PRODUCT_CATEGORY ( 'detail', '', ( #50 ) ) ;
#94 = LINE ( 'NONE', #191, #28 ) ;
#95 = CARTESIAN_POINT ( 'NONE',  ( 0.000000000000000000, 0.000000000000000000, 0.000000000000000000 ) ) ;
#96 = CYLINDRICAL_SURFACE ( 'NONE', #135, 2.750000000000000000 ) ;
#97 = ORGANIZATION ( 'NEURÈENÝ', 'NEURÈENÝ', '' ) ;
#98 = APPROVAL_ROLE ( '' ) ;
#99 = CALENDAR_DATE ( 2022, 7, 7 ) ;
#100 = VECTOR ( 'NONE', #211, 1000.000000000000000 ) ;
#101 = PERSON_AND_ORGANIZATION_ROLE ( 'creator' ) ;
#102 = AXIS2_PLACEMENT_3D ( 'NONE', #95, #250, #35 ) ;
#103 = PERSON_AND_ORGANIZATION ( #226, #97 ) ;
#104 = DATE_AND_TIME ( #167, #247 ) ;
#105 = PRODUCT_DEFINITION ( 'NEZNÁMÝ', '', #128, #15 ) ;
#106 = APPROVAL_PERSON_ORGANIZATION ( #216, #9, #120 ) ;
#107 = ORIENTED_EDGE ( 'NONE', *, *, #137, .F. ) ;
#108 = ORIENTED_EDGE ( 'NONE', *, *, #201, .T. ) ;
#109 = ORIENTED_EDGE ( 'NONE', *, *, #45, .F. ) ;
#110 = PRODUCT_DEFINITION_SHAPE ( 'NONE', 'NONE',  #105 ) ;
#111 = APPROVAL_DATE_TIME ( #104, #126 ) ;
#112 = DIRECTION ( 'NONE',  ( -0.000000000000000000, -0.000000000000000000, -1.000000000000000000 ) ) ;
#113 = DIRECTION ( 'NONE',  ( 0.000000000000000000, 0.000000000000000000, 1.000000000000000000 ) ) ;
#114 = CARTESIAN_POINT ( 'NONE',  ( 0.000000000000000000, 0.000000000000000000, 3.000000000000000000 ) ) ;
#115 = DIRECTION ( 'NONE',  ( 0.000000000000000000, 0.000000000000000000, 1.000000000000000000 ) ) ;
#116 = CYLINDRICAL_SURFACE ( 'NONE', #207, 2.750000000000000000 ) ;
#117 = ADVANCED_FACE ( 'NONE', ( #133 ), #31, .T. ) ;
#118 = DIRECTION ( 'NONE',  ( 1.000000000000000000, 0.000000000000000000, 0.000000000000000000 ) ) ;
#119 = AXIS2_PLACEMENT_3D ( 'NONE', #181, #59, #21 ) ;
#120 = APPROVAL_ROLE ( '' ) ;
#121 =( LENGTH_UNIT ( ) NAMED_UNIT ( * ) SI_UNIT ( .MILLI., .METRE. ) );
#122 = AXIS2_PLACEMENT_3D ( 'NONE', #210, #55, #48 ) ;
#123 = PERSON_AND_ORGANIZATION_ROLE ( 'design_supplier' ) ;
#124 = CIRCLE ( 'NONE', #119, 2.750000000000000000 ) ;
#125 = ADVANCED_FACE ( 'NONE', ( #29, #196 ), #77, .T. ) ;
#126 = APPROVAL ( #204, 'NEURÈENÝ' ) ;
#127 = APPROVAL_PERSON_ORGANIZATION ( #89, #126, #222 ) ;
#128 = PRODUCT_DEFINITION_FORMATION_WITH_SPECIFIED_SOURCE ( 'LIBOVOLNÝ', '', #50, .NOT_KNOWN. ) ;
#129 = EDGE_LOOP ( 'NONE', ( #84, #62 ) ) ;
#130 = CC_DESIGN_PERSON_AND_ORGANIZATION_ASSIGNMENT ( #42, #220, ( #37 ) ) ;
#131 = ORIENTED_EDGE ( 'NONE', *, *, #75, .T. ) ;
#132 = UNCERTAINTY_MEASURE_WITH_UNIT (LENGTH_MEASURE( 1.000000000000000082E-05 ), #121, 'distance_accuracy_value', 'NONE');
#133 = FACE_OUTER_BOUND ( 'NONE', #25, .T. ) ;
#134 = DIRECTION ( 'NONE',  ( 1.000000000000000000, 0.000000000000000000, 0.000000000000000000 ) ) ;
#135 = AXIS2_PLACEMENT_3D ( 'NONE', #251, #51, #78 ) ;
#136 = DIRECTION ( 'NONE',  ( -0.000000000000000000, -0.000000000000000000, -1.000000000000000000 ) ) ;
#137 = EDGE_CURVE ( 'NONE', #185, #83, #94, .T. ) ;
#138 = DIRECTION ( 'NONE',  ( -1.000000000000000000, 0.000000000000000000, 0.000000000000000000 ) ) ;
#139 = CARTESIAN_POINT ( 'NONE',  ( 0.000000000000000000, 0.000000000000000000, 3.000000000000000000 ) ) ;
#140 = CALENDAR_DATE ( 2022, 7, 7 ) ;
#141 = CLOSED_SHELL ( 'NONE', ( #47, #117, #147, #125, #227, #91, #156 ) ) ;
#142 = COORDINATED_UNIVERSAL_TIME_OFFSET ( 1, 0, .AHEAD. ) ;
#143 = CC_DESIGN_DATE_AND_TIME_ASSIGNMENT ( #149, #5, ( #37 ) ) ;
#144 = DIRECTION ( 'NONE',  ( 0.000000000000000000, 0.000000000000000000, 1.000000000000000000 ) ) ;
#145 = PERSON_AND_ORGANIZATION_ROLE ( 'creator' ) ;
#146 = EDGE_LOOP ( 'NONE', ( #242, #168 ) ) ;
#147 = ADVANCED_FACE ( 'NONE', ( #177 ), #213, .T. ) ;
#148 = APPROVAL_PERSON_ORGANIZATION ( #22, #169, #98 ) ;
#149 = DATE_AND_TIME ( #188, #73 ) ;
#150 = LOCAL_TIME ( 19, 41, 45.00000000000000000, #2 ) ;
#151 = MANIFOLD_SOLID_BREP ( 'Pøidat vysunutím3', #141 ) ;
#152 = CARTESIAN_POINT ( 'NONE',  ( -2.750000000000000000, 0.000000000000000000, 403.0000000000000000 ) ) ;
#153 = LOCAL_TIME ( 19, 41, 45.00000000000000000, #235 ) ;
#154 = DIRECTION ( 'NONE',  ( -1.000000000000000000, 0.000000000000000000, 0.000000000000000000 ) ) ;
#155 = DIRECTION ( 'NONE',  ( -0.000000000000000000, -0.000000000000000000, -1.000000000000000000 ) ) ;
#156 = ADVANCED_FACE ( 'NONE', ( #190 ), #56, .T. ) ;
#157 = AXIS2_PLACEMENT_3D ( 'NONE', #228, #248, #192 ) ;
#158 = CARTESIAN_POINT ( 'NONE',  ( 0.000000000000000000, 0.000000000000000000, 403.0000000000000000 ) ) ;
#159 = CARTESIAN_POINT ( 'NONE',  ( 0.000000000000000000, 0.000000000000000000, 3.000000000000000000 ) ) ;
#160 = PERSON_AND_ORGANIZATION ( #226, #97 ) ;
#161 = DIRECTION ( 'NONE',  ( 1.000000000000000000, 0.000000000000000000, -0.000000000000000000 ) ) ;
#162 = DATE_AND_TIME ( #99, #236 ) ;
#163 = EDGE_CURVE ( 'NONE', #65, #82, #231, .T. ) ;
#164 = EDGE_LOOP ( 'NONE', ( #68, #240, #245, #7 ) ) ;
#165 = CARTESIAN_POINT ( 'NONE',  ( 0.000000000000000000, 0.000000000000000000, 0.000000000000000000 ) ) ;
#166 = EDGE_LOOP ( 'NONE', ( #174, #43, #81, #27 ) ) ;
#167 = CALENDAR_DATE ( 2022, 7, 7 ) ;
#168 = ORIENTED_EDGE ( 'NONE', *, *, #232, .T. ) ;
#169 = APPROVAL ( #57, 'NEURÈENÝ' ) ;
#170 = CIRCLE ( 'NONE', #200, 2.750000000000000000 ) ;
#171 = CARTESIAN_POINT ( 'NONE',  ( 5.000000000000000000, 6.123233995736766282E-16, 3.000000000000000000 ) ) ;
#172 = EDGE_LOOP ( 'NONE', ( #107, #66, #87, #187 ) ) ;
#173 = COORDINATED_UNIVERSAL_TIME_OFFSET ( 1, 0, .AHEAD. ) ;
#174 = ORIENTED_EDGE ( 'NONE', *, *, #232, .F. ) ;
#175 = DIRECTION ( 'NONE',  ( 1.000000000000000000, 0.000000000000000000, 0.000000000000000000 ) ) ;
#176 = CARTESIAN_POINT ( 'NONE',  ( 5.000000000000000000, 6.123233995736766282E-16, 3.000000000000000000 ) ) ;
#177 = FACE_OUTER_BOUND ( 'NONE', #164, .T. ) ;
#178 = EDGE_CURVE ( 'NONE', #70, #6, #64, .T. ) ;
#179 = FACE_OUTER_BOUND ( 'NONE', #172, .T. ) ;
#180 = DIRECTION ( 'NONE',  ( -0.000000000000000000, -0.000000000000000000, -1.000000000000000000 ) ) ;
#181 = CARTESIAN_POINT ( 'NONE',  ( 0.000000000000000000, 0.000000000000000000, 403.0000000000000000 ) ) ;
#182 = FACE_OUTER_BOUND ( 'NONE', #241, .T. ) ;
#183 = CC_DESIGN_APPROVAL ( #9, ( #128 ) ) ;
#184 = EDGE_LOOP ( 'NONE', ( #109, #4 ) ) ;
#185 = VERTEX_POINT ( 'NONE', #246 ) ;
#186 = VECTOR ( 'NONE', #72, 1000.000000000000000 ) ;
#187 = ORIENTED_EDGE ( 'NONE', *, *, #45, .T. ) ;
#188 = CALENDAR_DATE ( 2022, 7, 7 ) ;
#189 = AXIS2_PLACEMENT_3D ( 'NONE', #165, #63, #118 ) ;
#190 = FACE_OUTER_BOUND ( 'NONE', #146, .T. ) ;
#191 = CARTESIAN_POINT ( 'NONE',  ( 2.750000000000000000, 3.367778697655221012E-16, 403.0000000000000000 ) ) ;
#192 = DIRECTION ( 'NONE',  ( 1.000000000000000000, 0.000000000000000000, 0.000000000000000000 ) ) ;
#193 = AXIS2_PLACEMENT_3D ( 'NONE', #215, #3, #161 ) ;
#194 = DIRECTION ( 'NONE',  ( 0.000000000000000000, 0.000000000000000000, 1.000000000000000000 ) ) ;
#195 = APPLICATION_CONTEXT ( 'configuration controlled 3d designs of mechanical parts and assemblies' ) ;
#196 = FACE_OUTER_BOUND ( 'NONE', #129, .T. ) ;
#197 = DATE_AND_TIME ( #140, #153 ) ;
#198 = APPROVAL_DATE_TIME ( #162, #9 ) ;
#199 = DATE_TIME_ROLE ( 'creation_date' ) ;
#200 = AXIS2_PLACEMENT_3D ( 'NONE', #14, #249, #134 ) ;
#201 = EDGE_CURVE ( 'NONE', #82, #65, #23, .T. ) ;
#202 = AXIS2_PLACEMENT_3D ( 'NONE', #225, #194, #17 ) ;
#203 = CC_DESIGN_DATE_AND_TIME_ASSIGNMENT ( #40, #199, ( #105 ) ) ;
#204 = APPROVAL_STATUS ( 'not_yet_approved' ) ;
#205 = SECURITY_CLASSIFICATION_LEVEL ( 'unclassified' ) ;
#206 = CARTESIAN_POINT ( 'NONE',  ( -2.750000000000000000, 0.000000000000000000, 403.0000000000000000 ) ) ;
#207 = AXIS2_PLACEMENT_3D ( 'NONE', #158, #180, #154 ) ;
#208 = AXIS2_PLACEMENT_3D ( 'NONE', #30, #113, #38 ) ;
#209 = CC_DESIGN_SECURITY_CLASSIFICATION ( #37, ( #128 ) ) ;
#210 = CARTESIAN_POINT ( 'NONE',  ( 0.000000000000000000, 0.000000000000000000, 403.0000000000000000 ) ) ;
#211 = DIRECTION ( 'NONE',  ( -0.000000000000000000, -0.000000000000000000, -1.000000000000000000 ) ) ;
#212 = VECTOR ( 'NONE', #155, 1000.000000000000000 ) ;
#213 = CYLINDRICAL_SURFACE ( 'NONE', #224, 5.000000000000000000 ) ;
#214 = CARTESIAN_POINT ( 'NONE',  ( 5.000000000000000000, 6.123233995736766282E-16, 0.000000000000000000 ) ) ;
#215 = CARTESIAN_POINT ( 'NONE',  ( 0.000000000000000000, 0.000000000000000000, 0.000000000000000000 ) ) ;
#216 = PERSON_AND_ORGANIZATION ( #226, #97 ) ;
#217 = CC_DESIGN_APPROVAL ( #169, ( #105 ) ) ;
#218 = CARTESIAN_POINT ( 'NONE',  ( -2.750000000000000000, 0.000000000000000000, 3.000000000000000000 ) ) ;
#219 = PERSON_AND_ORGANIZATION ( #226, #97 ) ;
#220 = PERSON_AND_ORGANIZATION_ROLE ( 'classification_officer' ) ;
#221 = ORIENTED_EDGE ( 'NONE', *, *, #32, .F. ) ;
#222 = APPROVAL_ROLE ( '' ) ;
#223 = ORIENTED_EDGE ( 'NONE', *, *, #243, .F. ) ;
#224 = AXIS2_PLACEMENT_3D ( 'NONE', #159, #112, #230 ) ;
#225 = CARTESIAN_POINT ( 'NONE',  ( 0.000000000000000000, 0.000000000000000000, 403.0000000000000000 ) ) ;
#226 = PERSON ( 'NEURÈENÝ', 'NEURÈENÝ', 'NEURÈENÝ', ('NEURÈENÝ'), ('NEURÈENÝ'), ('NEURÈENÝ') ) ;
#227 = ADVANCED_FACE ( 'NONE', ( #182 ), #79, .F. ) ;
#228 = CARTESIAN_POINT ( 'NONE',  ( 0.000000000000000000, 0.000000000000000000, 3.000000000000000000 ) ) ;
#229 = CARTESIAN_POINT ( 'NONE',  ( -5.000000000000000000, 0.000000000000000000, 3.000000000000000000 ) ) ;
#230 = DIRECTION ( 'NONE',  ( -1.000000000000000000, 0.000000000000000000, 0.000000000000000000 ) ) ;
#231 = CIRCLE ( 'NONE', #102, 5.000000000000000000 ) ;
#232 = EDGE_CURVE ( 'NONE', #185, #88, #124, .T. ) ;
#233 = LINE ( 'NONE', #229, #100 ) ;
#234 =( NAMED_UNIT ( * ) SI_UNIT ( $, .STERADIAN. ) SOLID_ANGLE_UNIT ( ) );
#235 = COORDINATED_UNIVERSAL_TIME_OFFSET ( 1, 0, .AHEAD. ) ;
#236 = LOCAL_TIME ( 19, 41, 45.00000000000000000, #142 ) ;
#237 =( NAMED_UNIT ( * ) PLANE_ANGLE_UNIT ( ) SI_UNIT ( $, .RADIAN. ) );
#238 = PERSON_AND_ORGANIZATION ( #226, #97 ) ;
#239 = VERTEX_POINT ( 'NONE', #218 ) ;
#240 = ORIENTED_EDGE ( 'NONE', *, *, #178, .F. ) ;
#241 = EDGE_LOOP ( 'NONE', ( #10, #244 ) ) ;
#242 = ORIENTED_EDGE ( 'NONE', *, *, #60, .T. ) ;
#243 = EDGE_CURVE ( 'NONE', #6, #70, #11, .T. ) ;
#244 = ORIENTED_EDGE ( 'NONE', *, *, #201, .F. ) ;
#245 = ORIENTED_EDGE ( 'NONE', *, *, #32, .T. ) ;
#246 = CARTESIAN_POINT ( 'NONE',  ( 2.750000000000000000, 3.367778697655221012E-16, 403.0000000000000000 ) ) ;
#247 = LOCAL_TIME ( 19, 41, 45.00000000000000000, #44 ) ;
#248 = DIRECTION ( 'NONE',  ( 0.000000000000000000, 0.000000000000000000, 1.000000000000000000 ) ) ;
#249 = DIRECTION ( 'NONE',  ( 0.000000000000000000, 0.000000000000000000, 1.000000000000000000 ) ) ;
#250 = DIRECTION ( 'NONE',  ( 0.000000000000000000, 0.000000000000000000, 1.000000000000000000 ) ) ;
#251 = CARTESIAN_POINT ( 'NONE',  ( 0.000000000000000000, 0.000000000000000000, 403.0000000000000000 ) ) ;
#252 = APPLICATION_PROTOCOL_DEFINITION ( 'international standard', 'config_control_design', 1994, #85 ) ;
#253 = APPLICATION_PROTOCOL_DEFINITION ( 'international standard', 'config_control_design', 1994, #195 ) ;
#254 = CC_DESIGN_PERSON_AND_ORGANIZATION_ASSIGNMENT ( #160, #24, ( #50 ) ) ;
#255 = DIRECTION ( 'NONE',  ( 1.000000000000000000, 0.000000000000000000, 0.000000000000000000 ) ) ;
ENDSEC;
END-ISO-10303-21;
