ISO-10303-21;
HEADER;
FILE_DESCRIPTION (( 'STEP AP203' ),
    '1' );
FILE_NAME ('850c.STEP',
    '2023-02-13T08:46:21',
    ( '' ),
    ( '' ),
    'SwSTEP 2.0',
    'SolidWorks 2019',
    '' );
FILE_SCHEMA (( 'CONFIG_CONTROL_DESIGN' ));
ENDSEC;

DATA;
#1 = DATE_AND_TIME ( #45, #71 ) ;
#2 = CARTESIAN_POINT ( 'NONE',  ( -12.00000000000000178, 0.000000000000000000, 7.000000000000000000 ) ) ;
#3 = CARTESIAN_POINT ( 'NONE',  ( -9.000000000000001776, 0.000000000000000000, 125.0000000000000000 ) ) ;
#4 = DIRECTION ( 'NONE',  ( 1.000000000000000000, 0.000000000000000000, 0.000000000000000000 ) ) ;
#5 = APPROVAL ( #37, 'NEURÈENÝ' ) ;
#6 = PLANE ( 'NONE',  #137 ) ;
#7 = DIRECTION ( 'NONE',  ( -0.000000000000000000, -0.000000000000000000, -1.000000000000000000 ) ) ;
#8 = EDGE_LOOP ( 'NONE', ( #241, #54 ) ) ;
#9 = EDGE_CURVE ( 'NONE', #228, #133, #215, .T. ) ;
#10 = ORIENTED_EDGE ( 'NONE', *, *, #162, .T. ) ;
#11 = CIRCLE ( 'NONE', #104, 12.00000000000000178 ) ;
#12 = PERSON_AND_ORGANIZATION_ROLE ( 'design_supplier' ) ;
#13 = CC_DESIGN_APPROVAL ( #85, ( #68 ) ) ;
#14 = ORIENTED_EDGE ( 'NONE', *, *, #27, .T. ) ;
#15 = VERTEX_POINT ( 'NONE', #151 ) ;
#16 = ADVANCED_FACE ( 'NONE', ( #229 ), #56, .T. ) ;
#17 = AXIS2_PLACEMENT_3D ( 'NONE', #194, #106, #173 ) ;
#18 = CC_DESIGN_PERSON_AND_ORGANIZATION_ASSIGNMENT ( #51, #125, ( #68 ) ) ;
#19 = COORDINATED_UNIVERSAL_TIME_OFFSET ( 1, 0, .AHEAD. ) ;
#20 = DIRECTION ( 'NONE',  ( -0.000000000000000000, -0.000000000000000000, -1.000000000000000000 ) ) ;
#21 = CIRCLE ( 'NONE', #153, 9.000000000000001776 ) ;
#22 = AXIS2_PLACEMENT_3D ( 'NONE', #36, #167, #152 ) ;
#23 = CARTESIAN_POINT ( 'NONE',  ( -12.00000000000000178, 0.000000000000000000, 0.000000000000000000 ) ) ;
#24 = LOCAL_TIME ( 9, 46, 21.00000000000000000, #35 ) ;
#25 = APPROVAL_STATUS ( 'not_yet_approved' ) ;
#26 = CARTESIAN_POINT ( 'NONE',  ( 0.000000000000000000, 0.000000000000000000, 125.0000000000000000 ) ) ;
#27 = EDGE_CURVE ( 'NONE', #133, #228, #57, .T. ) ;
#28 = FACE_OUTER_BOUND ( 'NONE', #146, .T. ) ;
#29 = CIRCLE ( 'NONE', #155, 12.00000000000000178 ) ;
#30 = DATE_AND_TIME ( #91, #122 ) ;
#31 = CARTESIAN_POINT ( 'NONE',  ( 12.00000000000000178, 1.469576158976824144E-15, 0.000000000000000000 ) ) ;
#32 = ORIENTED_EDGE ( 'NONE', *, *, #27, .F. ) ;
#33 = ADVANCED_FACE ( 'NONE', ( #225 ), #73, .F. ) ;
#34 = ORIENTED_EDGE ( 'NONE', *, *, #162, .F. ) ;
#35 = COORDINATED_UNIVERSAL_TIME_OFFSET ( 1, 0, .AHEAD. ) ;
#36 = CARTESIAN_POINT ( 'NONE',  ( 0.000000000000000000, 0.000000000000000000, 125.0000000000000000 ) ) ;
#37 = APPROVAL_STATUS ( 'not_yet_approved' ) ;
#38 = EDGE_LOOP ( 'NONE', ( #226, #74 ) ) ;
#39 = ADVANCED_FACE ( 'NONE', ( #182 ), #6, .T. ) ;
#40 = CIRCLE ( 'NONE', #77, 12.00000000000000178 ) ;
#41 = PRODUCT_DEFINITION_FORMATION_WITH_SPECIFIED_SOURCE ( 'LIBOVOLNÝ', '', #82, .NOT_KNOWN. ) ;
#42 = ADVANCED_FACE ( 'NONE', ( #127 ), #196, .T. ) ;
#43 = PERSON_AND_ORGANIZATION ( #64, #227 ) ;
#44 = EDGE_CURVE ( 'NONE', #15, #118, #201, .T. ) ;
#45 = CALENDAR_DATE ( 2023, 13, 2 ) ;
#46 = PERSON_AND_ORGANIZATION ( #64, #227 ) ;
#47 = DIRECTION ( 'NONE',  ( 0.000000000000000000, 0.000000000000000000, 1.000000000000000000 ) ) ;
#48 = DIRECTION ( 'NONE',  ( -1.000000000000000000, 0.000000000000000000, 0.000000000000000000 ) ) ;
#49 = DIRECTION ( 'NONE',  ( 0.000000000000000000, 0.000000000000000000, 1.000000000000000000 ) ) ;
#50 = DESIGN_CONTEXT ( 'detailed design', #253, 'design' ) ;
#51 = PERSON_AND_ORGANIZATION ( #64, #227 ) ;
#52 = CARTESIAN_POINT ( 'NONE',  ( 0.000000000000000000, 0.000000000000000000, 7.000000000000000000 ) ) ;
#53 = ORIENTED_EDGE ( 'NONE', *, *, #239, .T. ) ;
#54 = ORIENTED_EDGE ( 'NONE', *, *, #139, .T. ) ;
#55 = LINE ( 'NONE', #117, #254 ) ;
#56 = CYLINDRICAL_SURFACE ( 'NONE', #130, 9.000000000000001776 ) ;
#57 = CIRCLE ( 'NONE', #112, 9.000000000000001776 ) ;
#58 = VERTEX_POINT ( 'NONE', #145 ) ;
#59 = VECTOR ( 'NONE', #72, 1000.000000000000000 ) ;
#60 = CC_DESIGN_PERSON_AND_ORGANIZATION_ASSIGNMENT ( #212, #12, ( #41 ) ) ;
#61 = CARTESIAN_POINT ( 'NONE',  ( 0.000000000000000000, 0.000000000000000000, 7.000000000000000000 ) ) ;
#62 = APPROVAL_ROLE ( '' ) ;
#63 = CC_DESIGN_SECURITY_CLASSIFICATION ( #141, ( #41 ) ) ;
#64 = PERSON ( 'NEURÈENÝ', 'NEURÈENÝ', 'NEURÈENÝ', ('NEURÈENÝ'), ('NEURÈENÝ'), ('NEURÈENÝ') ) ;
#65 = APPLICATION_PROTOCOL_DEFINITION ( 'international standard', 'config_control_design', 1994, #105 ) ;
#66 = MANIFOLD_SOLID_BREP ( 'Pøidat vysunutím3', #178 ) ;
#67 = DIRECTION ( 'NONE',  ( 0.000000000000000000, 0.000000000000000000, 1.000000000000000000 ) ) ;
#68 = PRODUCT_DEFINITION ( 'NEZNÁMÝ', '', #41, #50 ) ;
#69 = APPROVAL_DATE_TIME ( #1, #85 ) ;
#70 = FACE_OUTER_BOUND ( 'NONE', #8, .T. ) ;
#71 = LOCAL_TIME ( 9, 46, 21.00000000000000000, #19 ) ;
#72 = DIRECTION ( 'NONE',  ( -0.000000000000000000, -0.000000000000000000, -1.000000000000000000 ) ) ;
#73 = PLANE ( 'NONE',  #165 ) ;
#74 = ORIENTED_EDGE ( 'NONE', *, *, #190, .F. ) ;
#75 = DIRECTION ( 'NONE',  ( 0.000000000000000000, 0.000000000000000000, 1.000000000000000000 ) ) ;
#76 = ORIENTED_EDGE ( 'NONE', *, *, #9, .T. ) ;
#77 = AXIS2_PLACEMENT_3D ( 'NONE', #114, #67, #158 ) ;
#78 = LOCAL_TIME ( 9, 46, 21.00000000000000000, #181 ) ;
#79 = APPROVAL_ROLE ( '' ) ;
#80 = VERTEX_POINT ( 'NONE', #23 ) ;
#81 = APPROVAL_DATE_TIME ( #233, #5 ) ;
#82 = PRODUCT ( '850c', '850c', '', ( #88 ) ) ;
#83 = DIRECTION ( 'NONE',  ( 1.000000000000000000, 0.000000000000000000, 0.000000000000000000 ) ) ;
#84 = ORIENTED_EDGE ( 'NONE', *, *, #190, .T. ) ;
#85 = APPROVAL ( #123, 'NEURÈENÝ' ) ;
#86 = DIRECTION ( 'NONE',  ( -0.000000000000000000, -0.000000000000000000, -1.000000000000000000 ) ) ;
#87 = ADVANCED_FACE ( 'NONE', ( #140 ), #90, .T. ) ;
#88 = MECHANICAL_CONTEXT ( 'NONE', #105, 'mechanical' ) ;
#89 = CALENDAR_DATE ( 2023, 13, 2 ) ;
#90 = CYLINDRICAL_SURFACE ( 'NONE', #213, 9.000000000000001776 ) ;
#91 = CALENDAR_DATE ( 2023, 13, 2 ) ;
#92 = DIRECTION ( 'NONE',  ( -1.000000000000000000, 0.000000000000000000, 0.000000000000000000 ) ) ;
#93 = PERSON_AND_ORGANIZATION ( #64, #227 ) ;
#94 = CARTESIAN_POINT ( 'NONE',  ( 0.000000000000000000, 0.000000000000000000, 0.000000000000000000 ) ) ;
#95 = CARTESIAN_POINT ( 'NONE',  ( 0.000000000000000000, 0.000000000000000000, 7.000000000000000000 ) ) ;
#96 = PRODUCT_RELATED_PRODUCT_CATEGORY ( 'detail', '', ( #82 ) ) ;
#97 = FACE_BOUND ( 'NONE', #38, .T. ) ;
#98 = ORIENTED_EDGE ( 'NONE', *, *, #217, .F. ) ;
#99 = EDGE_LOOP ( 'NONE', ( #32, #211, #84, #101 ) ) ;
#100 = ORIENTED_EDGE ( 'NONE', *, *, #142, .T. ) ;
#101 = ORIENTED_EDGE ( 'NONE', *, *, #142, .F. ) ;
#102 = CALENDAR_DATE ( 2023, 13, 2 ) ;
#103 = CARTESIAN_POINT ( 'NONE',  ( 0.000000000000000000, 0.000000000000000000, 7.000000000000000000 ) ) ;
#104 = AXIS2_PLACEMENT_3D ( 'NONE', #143, #224, #184 ) ;
#105 = APPLICATION_CONTEXT ( 'configuration controlled 3d designs of mechanical parts and assemblies' ) ;
#106 = DIRECTION ( 'NONE',  ( 0.000000000000000000, 0.000000000000000000, 1.000000000000000000 ) ) ;
#107 = APPROVAL_ROLE ( '' ) ;
#108 = VECTOR ( 'NONE', #7, 1000.000000000000000 ) ;
#109 = DIRECTION ( 'NONE',  ( 1.000000000000000000, 0.000000000000000000, -0.000000000000000000 ) ) ;
#110 = CARTESIAN_POINT ( 'NONE',  ( 9.000000000000001776, 1.102182119232617911E-15, 125.0000000000000000 ) ) ;
#111 = CARTESIAN_POINT ( 'NONE',  ( 0.000000000000000000, 0.000000000000000000, 125.0000000000000000 ) ) ;
#112 = AXIS2_PLACEMENT_3D ( 'NONE', #26, #47, #183 ) ;
#113 = DIRECTION ( 'NONE',  ( 1.000000000000000000, 0.000000000000000000, -0.000000000000000000 ) ) ;
#114 = CARTESIAN_POINT ( 'NONE',  ( 0.000000000000000000, 0.000000000000000000, 0.000000000000000000 ) ) ;
#115 = ORIENTED_EDGE ( 'NONE', *, *, #9, .F. ) ;
#116 = VERTEX_POINT ( 'NONE', #2 ) ;
#117 = CARTESIAN_POINT ( 'NONE',  ( 9.000000000000001776, 1.102182119232617911E-15, 125.0000000000000000 ) ) ;
#118 = VERTEX_POINT ( 'NONE', #31 ) ;
#119 = DIRECTION ( 'NONE',  ( 0.000000000000000000, 0.000000000000000000, 1.000000000000000000 ) ) ;
#120 = EDGE_LOOP ( 'NONE', ( #186, #205, #248, #34 ) ) ;
#121 = EDGE_CURVE ( 'NONE', #80, #118, #234, .T. ) ;
#122 = LOCAL_TIME ( 9, 46, 21.00000000000000000, #200 ) ;
#123 = APPROVAL_STATUS ( 'not_yet_approved' ) ;
#124 = LOCAL_TIME ( 9, 46, 21.00000000000000000, #208 ) ;
#125 = PERSON_AND_ORGANIZATION_ROLE ( 'creator' ) ;
#126 = CARTESIAN_POINT ( 'NONE',  ( 0.000000000000000000, 0.000000000000000000, 0.000000000000000000 ) ) ;
#127 = FACE_OUTER_BOUND ( 'NONE', #120, .T. ) ;
#128 = CIRCLE ( 'NONE', #250, 9.000000000000001776 ) ;
#129 = LINE ( 'NONE', #3, #149 ) ;
#130 = AXIS2_PLACEMENT_3D ( 'NONE', #134, #207, #197 ) ;
#131 = CARTESIAN_POINT ( 'NONE',  ( 12.00000000000000178, 1.469576158976824144E-15, 7.000000000000000000 ) ) ;
#132 =( NAMED_UNIT ( * ) SI_UNIT ( $, .STERADIAN. ) SOLID_ANGLE_UNIT ( ) );
#133 = VERTEX_POINT ( 'NONE', #110 ) ;
#134 = CARTESIAN_POINT ( 'NONE',  ( 0.000000000000000000, 0.000000000000000000, 125.0000000000000000 ) ) ;
#135 =( LENGTH_UNIT ( ) NAMED_UNIT ( * ) SI_UNIT ( .MILLI., .METRE. ) );
#136 = APPROVAL ( #25, 'NEURÈENÝ' ) ;
#137 = AXIS2_PLACEMENT_3D ( 'NONE', #242, #223, #113 ) ;
#138 = PERSON_AND_ORGANIZATION_ROLE ( 'design_owner' ) ;
#139 = EDGE_CURVE ( 'NONE', #15, #116, #11, .T. ) ;
#140 = FACE_OUTER_BOUND ( 'NONE', #99, .T. ) ;
#141 = SECURITY_CLASSIFICATION ( '', '', #247 ) ;
#142 = EDGE_CURVE ( 'NONE', #228, #185, #129, .T. ) ;
#143 = CARTESIAN_POINT ( 'NONE',  ( 0.000000000000000000, 0.000000000000000000, 7.000000000000000000 ) ) ;
#144 = UNCERTAINTY_MEASURE_WITH_UNIT (LENGTH_MEASURE( 1.000000000000000082E-05 ), #135, 'distance_accuracy_value', 'NONE');
#145 = CARTESIAN_POINT ( 'NONE',  ( 9.000000000000001776, 1.102182119232617911E-15, 7.000000000000000000 ) ) ;
#146 = EDGE_LOOP ( 'NONE', ( #169, #164, #10, #172 ) ) ;
#147 = DATE_AND_TIME ( #102, #124 ) ;
#148 =( NAMED_UNIT ( * ) PLANE_ANGLE_UNIT ( ) SI_UNIT ( $, .RADIAN. ) );
#149 = VECTOR ( 'NONE', #157, 1000.000000000000000 ) ;
#150 = ORIENTED_EDGE ( 'NONE', *, *, #159, .F. ) ;
#151 = CARTESIAN_POINT ( 'NONE',  ( 12.00000000000000178, 1.469576158976824144E-15, 7.000000000000000000 ) ) ;
#152 = DIRECTION ( 'NONE',  ( 1.000000000000000000, 0.000000000000000000, 0.000000000000000000 ) ) ;
#153 = AXIS2_PLACEMENT_3D ( 'NONE', #52, #75, #237 ) ;
#154 = ADVANCED_FACE ( 'NONE', ( #28 ), #236, .T. ) ;
#155 = AXIS2_PLACEMENT_3D ( 'NONE', #61, #232, #252 ) ;
#156 = PERSON_AND_ORGANIZATION ( #64, #227 ) ;
#157 = DIRECTION ( 'NONE',  ( -0.000000000000000000, -0.000000000000000000, -1.000000000000000000 ) ) ;
#158 = DIRECTION ( 'NONE',  ( 1.000000000000000000, 0.000000000000000000, 0.000000000000000000 ) ) ;
#159 = EDGE_CURVE ( 'NONE', #118, #80, #40, .T. ) ;
#160 = DIRECTION ( 'NONE',  ( -0.000000000000000000, -0.000000000000000000, -1.000000000000000000 ) ) ;
#161 = CARTESIAN_POINT ( 'NONE',  ( -9.000000000000001776, 0.000000000000000000, 7.000000000000000000 ) ) ;
#162 = EDGE_CURVE ( 'NONE', #116, #80, #163, .T. ) ;
#163 = LINE ( 'NONE', #222, #108 ) ;
#164 = ORIENTED_EDGE ( 'NONE', *, *, #255, .F. ) ;
#165 = AXIS2_PLACEMENT_3D ( 'NONE', #126, #49, #109 ) ;
#166 = AXIS2_PLACEMENT_3D ( 'NONE', #198, #20, #48 ) ;
#167 = DIRECTION ( 'NONE',  ( 0.000000000000000000, 0.000000000000000000, 1.000000000000000000 ) ) ;
#168 = DIRECTION ( 'NONE',  ( 0.000000000000000000, 0.000000000000000000, 1.000000000000000000 ) ) ;
#169 = ORIENTED_EDGE ( 'NONE', *, *, #44, .F. ) ;
#170 = CC_DESIGN_APPROVAL ( #5, ( #141 ) ) ;
#171 = DIRECTION ( 'NONE',  ( 1.000000000000000000, 0.000000000000000000, -0.000000000000000000 ) ) ;
#172 = ORIENTED_EDGE ( 'NONE', *, *, #121, .T. ) ;
#173 = DIRECTION ( 'NONE',  ( 1.000000000000000000, 0.000000000000000000, 0.000000000000000000 ) ) ;
#174 = CC_DESIGN_DATE_AND_TIME_ASSIGNMENT ( #30, #195, ( #68 ) ) ;
#175 = AXIS2_PLACEMENT_3D ( 'NONE', #95, #160, #92 ) ;
#176 = APPROVAL_PERSON_ORGANIZATION ( #93, #136, #107 ) ;
#177 = DATE_AND_TIME ( #89, #78 ) ;
#178 = CLOSED_SHELL ( 'NONE', ( #87, #42, #154, #210, #33, #16, #39 ) ) ;
#179 = DIRECTION ( 'NONE',  ( -0.000000000000000000, -0.000000000000000000, -1.000000000000000000 ) ) ;
#180 = DIRECTION ( 'NONE',  ( -1.000000000000000000, 0.000000000000000000, 0.000000000000000000 ) ) ;
#181 = COORDINATED_UNIVERSAL_TIME_OFFSET ( 1, 0, .AHEAD. ) ;
#182 = FACE_OUTER_BOUND ( 'NONE', #246, .T. ) ;
#183 = DIRECTION ( 'NONE',  ( 1.000000000000000000, 0.000000000000000000, 0.000000000000000000 ) ) ;
#184 = DIRECTION ( 'NONE',  ( 1.000000000000000000, 0.000000000000000000, 0.000000000000000000 ) ) ;
#185 = VERTEX_POINT ( 'NONE', #161 ) ;
#186 = ORIENTED_EDGE ( 'NONE', *, *, #139, .F. ) ;
#187 = AXIS2_PLACEMENT_3D ( 'NONE', #219, #119, #171 ) ;
#188 = CARTESIAN_POINT ( 'NONE',  ( -9.000000000000001776, 0.000000000000000000, 125.0000000000000000 ) ) ;
#189 = ORIENTED_EDGE ( 'NONE', *, *, #121, .F. ) ;
#190 = EDGE_CURVE ( 'NONE', #58, #185, #21, .T. ) ;
#191 = EDGE_LOOP ( 'NONE', ( #189, #150 ) ) ;
#192 = AXIS2_PLACEMENT_3D ( 'NONE', #94, #199, #4 ) ;
#193 = CC_DESIGN_PERSON_AND_ORGANIZATION_ASSIGNMENT ( #156, #138, ( #82 ) ) ;
#194 = CARTESIAN_POINT ( 'NONE',  ( 0.000000000000000000, 0.000000000000000000, 0.000000000000000000 ) ) ;
#195 = DATE_TIME_ROLE ( 'creation_date' ) ;
#196 = CYLINDRICAL_SURFACE ( 'NONE', #166, 12.00000000000000178 ) ;
#197 = DIRECTION ( 'NONE',  ( -1.000000000000000000, 0.000000000000000000, 0.000000000000000000 ) ) ;
#198 = CARTESIAN_POINT ( 'NONE',  ( 0.000000000000000000, 0.000000000000000000, 7.000000000000000000 ) ) ;
#199 = DIRECTION ( 'NONE',  ( 0.000000000000000000, 0.000000000000000000, 1.000000000000000000 ) ) ;
#200 = COORDINATED_UNIVERSAL_TIME_OFFSET ( 1, 0, .AHEAD. ) ;
#201 = LINE ( 'NONE', #131, #59 ) ;
#202 =( GEOMETRIC_REPRESENTATION_CONTEXT ( 3 ) GLOBAL_UNCERTAINTY_ASSIGNED_CONTEXT ( ( #144 ) ) GLOBAL_UNIT_ASSIGNED_CONTEXT ( ( #135, #148, #132 ) ) REPRESENTATION_CONTEXT ( 'NONE', 'WORKASPACE' ) );
#203 = PERSON_AND_ORGANIZATION ( #64, #227 ) ;
#204 = ADVANCED_BREP_SHAPE_REPRESENTATION ( '850c', ( #66, #17 ), #202 ) ;
#205 = ORIENTED_EDGE ( 'NONE', *, *, #44, .T. ) ;
#206 = PERSON_AND_ORGANIZATION_ROLE ( 'classification_officer' ) ;
#207 = DIRECTION ( 'NONE',  ( -0.000000000000000000, -0.000000000000000000, -1.000000000000000000 ) ) ;
#208 = COORDINATED_UNIVERSAL_TIME_OFFSET ( 1, 0, .AHEAD. ) ;
#209 = PRODUCT_DEFINITION_SHAPE ( 'NONE', 'NONE',  #68 ) ;
#210 = ADVANCED_FACE ( 'NONE', ( #97, #70 ), #240, .T. ) ;
#211 = ORIENTED_EDGE ( 'NONE', *, *, #217, .T. ) ;
#212 = PERSON_AND_ORGANIZATION ( #64, #227 ) ;
#213 = AXIS2_PLACEMENT_3D ( 'NONE', #111, #179, #180 ) ;
#214 = CC_DESIGN_APPROVAL ( #136, ( #41 ) ) ;
#215 = CIRCLE ( 'NONE', #22, 9.000000000000001776 ) ;
#216 = APPROVAL_PERSON_ORGANIZATION ( #243, #5, #79 ) ;
#217 = EDGE_CURVE ( 'NONE', #133, #58, #55, .T. ) ;
#218 = APPLICATION_PROTOCOL_DEFINITION ( 'international standard', 'config_control_design', 1994, #253 ) ;
#219 = CARTESIAN_POINT ( 'NONE',  ( 0.000000000000000000, 0.000000000000000000, 7.000000000000000000 ) ) ;
#220 = CC_DESIGN_DATE_AND_TIME_ASSIGNMENT ( #147, #249, ( #141 ) ) ;
#221 = APPROVAL_DATE_TIME ( #177, #136 ) ;
#222 = CARTESIAN_POINT ( 'NONE',  ( -12.00000000000000178, 0.000000000000000000, 7.000000000000000000 ) ) ;
#223 = DIRECTION ( 'NONE',  ( 0.000000000000000000, 0.000000000000000000, 1.000000000000000000 ) ) ;
#224 = DIRECTION ( 'NONE',  ( 0.000000000000000000, 0.000000000000000000, 1.000000000000000000 ) ) ;
#225 = FACE_OUTER_BOUND ( 'NONE', #191, .T. ) ;
#226 = ORIENTED_EDGE ( 'NONE', *, *, #239, .F. ) ;
#227 = ORGANIZATION ( 'NEURÈENÝ', 'NEURÈENÝ', '' ) ;
#228 = VERTEX_POINT ( 'NONE', #188 ) ;
#229 = FACE_OUTER_BOUND ( 'NONE', #244, .T. ) ;
#230 = CC_DESIGN_PERSON_AND_ORGANIZATION_ASSIGNMENT ( #203, #206, ( #141 ) ) ;
#231 = SHAPE_DEFINITION_REPRESENTATION ( #209, #204 ) ;
#232 = DIRECTION ( 'NONE',  ( 0.000000000000000000, 0.000000000000000000, 1.000000000000000000 ) ) ;
#233 = DATE_AND_TIME ( #245, #24 ) ;
#234 = CIRCLE ( 'NONE', #192, 12.00000000000000178 ) ;
#235 = APPROVAL_PERSON_ORGANIZATION ( #43, #85, #62 ) ;
#236 = CYLINDRICAL_SURFACE ( 'NONE', #175, 12.00000000000000178 ) ;
#237 = DIRECTION ( 'NONE',  ( 1.000000000000000000, 0.000000000000000000, 0.000000000000000000 ) ) ;
#238 = PERSON_AND_ORGANIZATION_ROLE ( 'creator' ) ;
#239 = EDGE_CURVE ( 'NONE', #185, #58, #128, .T. ) ;
#240 = PLANE ( 'NONE',  #187 ) ;
#241 = ORIENTED_EDGE ( 'NONE', *, *, #255, .T. ) ;
#242 = CARTESIAN_POINT ( 'NONE',  ( 0.000000000000000000, 0.000000000000000000, 125.0000000000000000 ) ) ;
#243 = PERSON_AND_ORGANIZATION ( #64, #227 ) ;
#244 = EDGE_LOOP ( 'NONE', ( #98, #115, #100, #53 ) ) ;
#245 = CALENDAR_DATE ( 2023, 13, 2 ) ;
#246 = EDGE_LOOP ( 'NONE', ( #76, #14 ) ) ;
#247 = SECURITY_CLASSIFICATION_LEVEL ( 'unclassified' ) ;
#248 = ORIENTED_EDGE ( 'NONE', *, *, #159, .T. ) ;
#249 = DATE_TIME_ROLE ( 'classification_date' ) ;
#250 = AXIS2_PLACEMENT_3D ( 'NONE', #103, #168, #83 ) ;
#251 = CC_DESIGN_PERSON_AND_ORGANIZATION_ASSIGNMENT ( #46, #238, ( #41 ) ) ;
#252 = DIRECTION ( 'NONE',  ( 1.000000000000000000, 0.000000000000000000, 0.000000000000000000 ) ) ;
#253 = APPLICATION_CONTEXT ( 'configuration controlled 3d designs of mechanical parts and assemblies' ) ;
#254 = VECTOR ( 'NONE', #86, 1000.000000000000000 ) ;
#255 = EDGE_CURVE ( 'NONE', #116, #15, #29, .T. ) ;
ENDSEC;
END-ISO-10303-21;
