ISO-10303-21;
HEADER;
FILE_DESCRIPTION (( 'STEP AP203' ),
    '1' );
FILE_NAME ('f8e3.STEP',
    '2022-07-07T17:20:49',
    ( '' ),
    ( '' ),
    'SwSTEP 2.0',
    'SolidWorks 2019',
    '' );
FILE_SCHEMA (( 'CONFIG_CONTROL_DESIGN' ));
ENDSEC;

DATA;
#1 = FACE_OUTER_BOUND ( 'NONE', #140, .T. ) ;
#2 = EDGE_LOOP ( 'NONE', ( #38, #118 ) ) ;
#3 = EDGE_LOOP ( 'NONE', ( #61, #74 ) ) ;
#4 = LINE ( 'NONE', #141, #68 ) ;
#5 = CARTESIAN_POINT ( 'NONE',  ( 0.000000000000000000, 0.000000000000000000, 7.000000000000000000 ) ) ;
#6 = APPROVAL_DATE_TIME ( #144, #212 ) ;
#7 = MECHANICAL_CONTEXT ( 'NONE', #70, 'mechanical' ) ;
#8 = PLANE ( 'NONE',  #231 ) ;
#9 = DIRECTION ( 'NONE',  ( 0.000000000000000000, 0.000000000000000000, 1.000000000000000000 ) ) ;
#10 = PERSON_AND_ORGANIZATION_ROLE ( 'design_owner' ) ;
#11 = ORIENTED_EDGE ( 'NONE', *, *, #37, .T. ) ;
#12 = CIRCLE ( 'NONE', #23, 9.000000000000000000 ) ;
#13 = CARTESIAN_POINT ( 'NONE',  ( 0.000000000000000000, 0.000000000000000000, 0.000000000000000000 ) ) ;
#14 = DATE_AND_TIME ( #31, #180 ) ;
#15 = PERSON_AND_ORGANIZATION ( #27, #198 ) ;
#16 = LOCAL_TIME ( 19, 20, 49.00000000000000000, #151 ) ;
#17 = CYLINDRICAL_SURFACE ( 'NONE', #156, 9.000000000000000000 ) ;
#18 = VERTEX_POINT ( 'NONE', #224 ) ;
#19 = ORIENTED_EDGE ( 'NONE', *, *, #251, .T. ) ;
#20 = DIRECTION ( 'NONE',  ( 0.000000000000000000, 0.000000000000000000, 1.000000000000000000 ) ) ;
#21 = DIRECTION ( 'NONE',  ( -1.000000000000000000, 0.000000000000000000, 0.000000000000000000 ) ) ;
#22 = CIRCLE ( 'NONE', #234, 5.750000000000000000 ) ;
#23 = AXIS2_PLACEMENT_3D ( 'NONE', #159, #238, #50 ) ;
#24 = DIRECTION ( 'NONE',  ( 0.000000000000000000, 0.000000000000000000, 1.000000000000000000 ) ) ;
#25 = DIRECTION ( 'NONE',  ( 0.000000000000000000, 0.000000000000000000, 1.000000000000000000 ) ) ;
#26 = FACE_OUTER_BOUND ( 'NONE', #2, .T. ) ;
#27 = PERSON ( 'NEURÈENÝ', 'NEURÈENÝ', 'NEURÈENÝ', ('NEURÈENÝ'), ('NEURÈENÝ'), ('NEURÈENÝ') ) ;
#28 = CARTESIAN_POINT ( 'NONE',  ( 0.000000000000000000, 0.000000000000000000, 407.0000000000000000 ) ) ;
#29 = PLANE ( 'NONE',  #115 ) ;
#30 = PRODUCT_DEFINITION_FORMATION_WITH_SPECIFIED_SOURCE ( 'LIBOVOLNÝ', '', #232, .NOT_KNOWN. ) ;
#31 = CALENDAR_DATE ( 2022, 7, 7 ) ;
#32 = ADVANCED_FACE ( 'NONE', ( #245, #168 ), #58, .T. ) ;
#33 = PERSON_AND_ORGANIZATION_ROLE ( 'creator' ) ;
#34 = CLOSED_SHELL ( 'NONE', ( #136, #64, #162, #32, #119, #73, #114 ) ) ;
#35 = CARTESIAN_POINT ( 'NONE',  ( 5.750000000000000000, 7.041719095097280880E-16, 407.0000000000000000 ) ) ;
#36 = EDGE_LOOP ( 'NONE', ( #139, #240 ) ) ;
#37 = EDGE_CURVE ( 'NONE', #147, #125, #216, .T. ) ;
#38 = ORIENTED_EDGE ( 'NONE', *, *, #251, .F. ) ;
#39 = CARTESIAN_POINT ( 'NONE',  ( 0.000000000000000000, 0.000000000000000000, 7.000000000000000000 ) ) ;
#40 = FACE_OUTER_BOUND ( 'NONE', #228, .T. ) ;
#41 = CARTESIAN_POINT ( 'NONE',  ( 0.000000000000000000, 0.000000000000000000, 7.000000000000000000 ) ) ;
#42 = CARTESIAN_POINT ( 'NONE',  ( 9.000000000000000000, 1.102182119232617714E-15, 0.000000000000000000 ) ) ;
#43 = CARTESIAN_POINT ( 'NONE',  ( 0.000000000000000000, 0.000000000000000000, 7.000000000000000000 ) ) ;
#44 = CARTESIAN_POINT ( 'NONE',  ( 5.750000000000000000, 7.041719095097280880E-16, 7.000000000000000000 ) ) ;
#45 = COORDINATED_UNIVERSAL_TIME_OFFSET ( 1, 0, .AHEAD. ) ;
#46 = AXIS2_PLACEMENT_3D ( 'NONE', #5, #55, #76 ) ;
#47 = EDGE_CURVE ( 'NONE', #186, #18, #75, .T. ) ;
#48 = APPROVAL_STATUS ( 'not_yet_approved' ) ;
#49 = PRODUCT_DEFINITION ( 'NEZNÁMÝ', '', #30, #90 ) ;
#50 = DIRECTION ( 'NONE',  ( 1.000000000000000000, 0.000000000000000000, 0.000000000000000000 ) ) ;
#51 = ORIENTED_EDGE ( 'NONE', *, *, #153, .T. ) ;
#52 = CC_DESIGN_DATE_AND_TIME_ASSIGNMENT ( #189, #102, ( #146 ) ) ;
#53 = ORIENTED_EDGE ( 'NONE', *, *, #93, .T. ) ;
#54 = CARTESIAN_POINT ( 'NONE',  ( 0.000000000000000000, 0.000000000000000000, 0.000000000000000000 ) ) ;
#55 = DIRECTION ( 'NONE',  ( -0.000000000000000000, -0.000000000000000000, -1.000000000000000000 ) ) ;
#56 = MANIFOLD_SOLID_BREP ( 'Pøidat vysunutím3', #34 ) ;
#57 = VERTEX_POINT ( 'NONE', #172 ) ;
#58 = PLANE ( 'NONE',  #181 ) ;
#59 = AXIS2_PLACEMENT_3D ( 'NONE', #28, #9, #103 ) ;
#60 = DIRECTION ( 'NONE',  ( -0.000000000000000000, -0.000000000000000000, -1.000000000000000000 ) ) ;
#61 = ORIENTED_EDGE ( 'NONE', *, *, #69, .T. ) ;
#62 = SHAPE_DEFINITION_REPRESENTATION ( #200, #239 ) ;
#63 = DIRECTION ( 'NONE',  ( 0.000000000000000000, 0.000000000000000000, 1.000000000000000000 ) ) ;
#64 = ADVANCED_FACE ( 'NONE', ( #193 ), #188, .T. ) ;
#65 = AXIS2_PLACEMENT_3D ( 'NONE', #174, #194, #250 ) ;
#66 = PERSON_AND_ORGANIZATION ( #27, #198 ) ;
#67 = DATE_AND_TIME ( #88, #109 ) ;
#68 = VECTOR ( 'NONE', #205, 1000.000000000000000 ) ;
#69 = EDGE_CURVE ( 'NONE', #85, #57, #173, .T. ) ;
#70 = APPLICATION_CONTEXT ( 'configuration controlled 3d designs of mechanical parts and assemblies' ) ;
#71 = CARTESIAN_POINT ( 'NONE',  ( 0.000000000000000000, 0.000000000000000000, 7.000000000000000000 ) ) ;
#72 = ORIENTED_EDGE ( 'NONE', *, *, #242, .T. ) ;
#73 = ADVANCED_FACE ( 'NONE', ( #40 ), #142, .T. ) ;
#74 = ORIENTED_EDGE ( 'NONE', *, *, #237, .T. ) ;
#75 = CIRCLE ( 'NONE', #59, 5.750000000000000000 ) ;
#76 = DIRECTION ( 'NONE',  ( -1.000000000000000000, 0.000000000000000000, 0.000000000000000000 ) ) ;
#77 = CIRCLE ( 'NONE', #253, 5.750000000000000000 ) ;
#78 = CC_DESIGN_PERSON_AND_ORGANIZATION_ASSIGNMENT ( #89, #155, ( #30 ) ) ;
#79 = DIRECTION ( 'NONE',  ( 0.000000000000000000, 0.000000000000000000, 1.000000000000000000 ) ) ;
#80 = ORIENTED_EDGE ( 'NONE', *, *, #47, .F. ) ;
#81 = PERSON_AND_ORGANIZATION ( #27, #198 ) ;
#82 = LINE ( 'NONE', #171, #117 ) ;
#83 = ORIENTED_EDGE ( 'NONE', *, *, #196, .F. ) ;
#84 = CARTESIAN_POINT ( 'NONE',  ( 0.000000000000000000, 0.000000000000000000, 0.000000000000000000 ) ) ;
#85 = VERTEX_POINT ( 'NONE', #98 ) ;
#86 = CARTESIAN_POINT ( 'NONE',  ( -5.750000000000000000, 0.000000000000000000, 7.000000000000000000 ) ) ;
#87 = EDGE_CURVE ( 'NONE', #18, #186, #22, .T. ) ;
#88 = CALENDAR_DATE ( 2022, 7, 7 ) ;
#89 = PERSON_AND_ORGANIZATION ( #27, #198 ) ;
#90 = DESIGN_CONTEXT ( 'detailed design', #163, 'design' ) ;
#91 = CC_DESIGN_SECURITY_CLASSIFICATION ( #146, ( #30 ) ) ;
#92 = DIRECTION ( 'NONE',  ( -0.000000000000000000, -0.000000000000000000, -1.000000000000000000 ) ) ;
#93 = EDGE_CURVE ( 'NONE', #85, #241, #82, .T. ) ;
#94 = VERTEX_POINT ( 'NONE', #42 ) ;
#95 = ORIENTED_EDGE ( 'NONE', *, *, #237, .F. ) ;
#96 = CC_DESIGN_PERSON_AND_ORGANIZATION_ASSIGNMENT ( #192, #10, ( #232 ) ) ;
#97 = CARTESIAN_POINT ( 'NONE',  ( 0.000000000000000000, 0.000000000000000000, 7.000000000000000000 ) ) ;
#98 = CARTESIAN_POINT ( 'NONE',  ( -9.000000000000000000, 0.000000000000000000, 7.000000000000000000 ) ) ;
#99 = APPROVAL_ROLE ( '' ) ;
#100 = DIRECTION ( 'NONE',  ( 0.000000000000000000, 0.000000000000000000, 1.000000000000000000 ) ) ;
#101 = ORIENTED_EDGE ( 'NONE', *, *, #93, .F. ) ;
#102 = DATE_TIME_ROLE ( 'classification_date' ) ;
#103 = DIRECTION ( 'NONE',  ( 1.000000000000000000, 0.000000000000000000, 0.000000000000000000 ) ) ;
#104 =( NAMED_UNIT ( * ) PLANE_ANGLE_UNIT ( ) SI_UNIT ( $, .RADIAN. ) );
#105 = AXIS2_PLACEMENT_3D ( 'NONE', #43, #150, #210 ) ;
#106 = CYLINDRICAL_SURFACE ( 'NONE', #65, 5.750000000000000000 ) ;
#107 = AXIS2_PLACEMENT_3D ( 'NONE', #54, #20, #121 ) ;
#108 = CC_DESIGN_PERSON_AND_ORGANIZATION_ASSIGNMENT ( #176, #254, ( #146 ) ) ;
#109 = LOCAL_TIME ( 19, 20, 49.00000000000000000, #45 ) ;
#110 = PERSON_AND_ORGANIZATION ( #27, #198 ) ;
#111 = VECTOR ( 'NONE', #218, 1000.000000000000000 ) ;
#112 = PERSON_AND_ORGANIZATION_ROLE ( 'creator' ) ;
#113 = APPROVAL_STATUS ( 'not_yet_approved' ) ;
#114 = ADVANCED_FACE ( 'NONE', ( #190 ), #8, .T. ) ;
#115 = AXIS2_PLACEMENT_3D ( 'NONE', #13, #63, #229 ) ;
#116 = DIRECTION ( 'NONE',  ( -0.000000000000000000, -0.000000000000000000, -1.000000000000000000 ) ) ;
#117 = VECTOR ( 'NONE', #60, 1000.000000000000000 ) ;
#118 = ORIENTED_EDGE ( 'NONE', *, *, #185, .F. ) ;
#119 = ADVANCED_FACE ( 'NONE', ( #26 ), #29, .F. ) ;
#120 = ORIENTED_EDGE ( 'NONE', *, *, #87, .T. ) ;
#121 = DIRECTION ( 'NONE',  ( 1.000000000000000000, 0.000000000000000000, 0.000000000000000000 ) ) ;
#122 = DIRECTION ( 'NONE',  ( -0.000000000000000000, -0.000000000000000000, -1.000000000000000000 ) ) ;
#123 = CC_DESIGN_APPROVAL ( #179, ( #30 ) ) ;
#124 =( GEOMETRIC_REPRESENTATION_CONTEXT ( 3 ) GLOBAL_UNCERTAINTY_ASSIGNED_CONTEXT ( ( #199 ) ) GLOBAL_UNIT_ASSIGNED_CONTEXT ( ( #226, #104, #249 ) ) REPRESENTATION_CONTEXT ( 'NONE', 'WORKASPACE' ) );
#125 = VERTEX_POINT ( 'NONE', #86 ) ;
#126 = APPLICATION_PROTOCOL_DEFINITION ( 'international standard', 'config_control_design', 1994, #70 ) ;
#127 = DIRECTION ( 'NONE',  ( 1.000000000000000000, 0.000000000000000000, -0.000000000000000000 ) ) ;
#128 = CALENDAR_DATE ( 2022, 7, 7 ) ;
#129 = LINE ( 'NONE', #211, #236 ) ;
#130 = LOCAL_TIME ( 19, 20, 49.00000000000000000, #165 ) ;
#131 = CIRCLE ( 'NONE', #175, 9.000000000000000000 ) ;
#132 = CC_DESIGN_PERSON_AND_ORGANIZATION_ASSIGNMENT ( #15, #112, ( #30 ) ) ;
#133 = CC_DESIGN_APPROVAL ( #252, ( #49 ) ) ;
#134 = DATE_TIME_ROLE ( 'creation_date' ) ;
#135 = APPROVAL_ROLE ( '' ) ;
#136 = ADVANCED_FACE ( 'NONE', ( #152 ), #106, .T. ) ;
#137 = AXIS2_PLACEMENT_3D ( 'NONE', #244, #223, #166 ) ;
#138 = CARTESIAN_POINT ( 'NONE',  ( 9.000000000000000000, 1.102182119232617714E-15, 7.000000000000000000 ) ) ;
#139 = ORIENTED_EDGE ( 'NONE', *, *, #242, .F. ) ;
#140 = EDGE_LOOP ( 'NONE', ( #143, #220, #53, #19 ) ) ;
#141 = CARTESIAN_POINT ( 'NONE',  ( -5.750000000000000000, 0.000000000000000000, 407.0000000000000000 ) ) ;
#142 = CYLINDRICAL_SURFACE ( 'NONE', #202, 5.750000000000000000 ) ;
#143 = ORIENTED_EDGE ( 'NONE', *, *, #153, .F. ) ;
#144 = DATE_AND_TIME ( #169, #16 ) ;
#145 = AXIS2_PLACEMENT_3D ( 'NONE', #84, #25, #208 ) ;
#146 = SECURITY_CLASSIFICATION ( '', '', #195 ) ;
#147 = VERTEX_POINT ( 'NONE', #44 ) ;
#148 = CARTESIAN_POINT ( 'NONE',  ( 0.000000000000000000, 0.000000000000000000, 407.0000000000000000 ) ) ;
#149 = EDGE_CURVE ( 'NONE', #186, #147, #129, .T. ) ;
#150 = DIRECTION ( 'NONE',  ( 0.000000000000000000, 0.000000000000000000, 1.000000000000000000 ) ) ;
#151 = COORDINATED_UNIVERSAL_TIME_OFFSET ( 1, 0, .AHEAD. ) ;
#152 = FACE_OUTER_BOUND ( 'NONE', #207, .T. ) ;
#153 = EDGE_CURVE ( 'NONE', #57, #94, #201, .T. ) ;
#154 = APPROVAL_ROLE ( '' ) ;
#155 = PERSON_AND_ORGANIZATION_ROLE ( 'design_supplier' ) ;
#156 = AXIS2_PLACEMENT_3D ( 'NONE', #71, #92, #182 ) ;
#157 = CC_DESIGN_DATE_AND_TIME_ASSIGNMENT ( #67, #134, ( #49 ) ) ;
#158 = APPROVAL_PERSON_ORGANIZATION ( #110, #179, #154 ) ;
#159 = CARTESIAN_POINT ( 'NONE',  ( 0.000000000000000000, 0.000000000000000000, 0.000000000000000000 ) ) ;
#160 = ORIENTED_EDGE ( 'NONE', *, *, #196, .T. ) ;
#161 = ORIENTED_EDGE ( 'NONE', *, *, #149, .F. ) ;
#162 = ADVANCED_FACE ( 'NONE', ( #1 ), #17, .T. ) ;
#163 = APPLICATION_CONTEXT ( 'configuration controlled 3d designs of mechanical parts and assemblies' ) ;
#164 = PRODUCT_RELATED_PRODUCT_CATEGORY ( 'detail', '', ( #232 ) ) ;
#165 = COORDINATED_UNIVERSAL_TIME_OFFSET ( 1, 0, .AHEAD. ) ;
#166 = DIRECTION ( 'NONE',  ( 1.000000000000000000, 0.000000000000000000, 0.000000000000000000 ) ) ;
#167 = DIRECTION ( 'NONE',  ( 0.000000000000000000, 0.000000000000000000, 1.000000000000000000 ) ) ;
#168 = FACE_OUTER_BOUND ( 'NONE', #3, .T. ) ;
#169 = CALENDAR_DATE ( 2022, 7, 7 ) ;
#170 = APPROVAL_PERSON_ORGANIZATION ( #81, #212, #99 ) ;
#171 = CARTESIAN_POINT ( 'NONE',  ( -9.000000000000000000, 0.000000000000000000, 7.000000000000000000 ) ) ;
#172 = CARTESIAN_POINT ( 'NONE',  ( 9.000000000000000000, 1.102182119232617714E-15, 7.000000000000000000 ) ) ;
#173 = CIRCLE ( 'NONE', #137, 9.000000000000000000 ) ;
#174 = CARTESIAN_POINT ( 'NONE',  ( 0.000000000000000000, 0.000000000000000000, 407.0000000000000000 ) ) ;
#175 = AXIS2_PLACEMENT_3D ( 'NONE', #97, #79, #221 ) ;
#176 = PERSON_AND_ORGANIZATION ( #27, #198 ) ;
#177 = CALENDAR_DATE ( 2022, 7, 7 ) ;
#178 = CC_DESIGN_APPROVAL ( #212, ( #146 ) ) ;
#179 = APPROVAL ( #113, 'NEURÈENÝ' ) ;
#180 = LOCAL_TIME ( 19, 20, 49.00000000000000000, #213 ) ;
#181 = AXIS2_PLACEMENT_3D ( 'NONE', #41, #24, #191 ) ;
#182 = DIRECTION ( 'NONE',  ( -1.000000000000000000, 0.000000000000000000, 0.000000000000000000 ) ) ;
#183 = ORIENTED_EDGE ( 'NONE', *, *, #149, .T. ) ;
#184 = EDGE_LOOP ( 'NONE', ( #120, #204 ) ) ;
#185 = EDGE_CURVE ( 'NONE', #94, #241, #12, .T. ) ;
#186 = VERTEX_POINT ( 'NONE', #35 ) ;
#187 = CARTESIAN_POINT ( 'NONE',  ( -9.000000000000000000, 0.000000000000000000, 0.000000000000000000 ) ) ;
#188 = CYLINDRICAL_SURFACE ( 'NONE', #46, 9.000000000000000000 ) ;
#189 = DATE_AND_TIME ( #128, #130 ) ;
#190 = FACE_OUTER_BOUND ( 'NONE', #184, .T. ) ;
#191 = DIRECTION ( 'NONE',  ( 1.000000000000000000, 0.000000000000000000, -0.000000000000000000 ) ) ;
#192 = PERSON_AND_ORGANIZATION ( #27, #198 ) ;
#193 = FACE_OUTER_BOUND ( 'NONE', #248, .T. ) ;
#194 = DIRECTION ( 'NONE',  ( -0.000000000000000000, -0.000000000000000000, -1.000000000000000000 ) ) ;
#195 = SECURITY_CLASSIFICATION_LEVEL ( 'unclassified' ) ;
#196 = EDGE_CURVE ( 'NONE', #18, #125, #4, .T. ) ;
#197 = COORDINATED_UNIVERSAL_TIME_OFFSET ( 1, 0, .AHEAD. ) ;
#198 = ORGANIZATION ( 'NEURÈENÝ', 'NEURÈENÝ', '' ) ;
#199 = UNCERTAINTY_MEASURE_WITH_UNIT (LENGTH_MEASURE( 1.000000000000000082E-05 ), #226, 'distance_accuracy_value', 'NONE');
#200 = PRODUCT_DEFINITION_SHAPE ( 'NONE', 'NONE',  #49 ) ;
#201 = LINE ( 'NONE', #138, #111 ) ;
#202 = AXIS2_PLACEMENT_3D ( 'NONE', #206, #122, #21 ) ;
#203 = ORIENTED_EDGE ( 'NONE', *, *, #185, .T. ) ;
#204 = ORIENTED_EDGE ( 'NONE', *, *, #47, .T. ) ;
#205 = DIRECTION ( 'NONE',  ( -0.000000000000000000, -0.000000000000000000, -1.000000000000000000 ) ) ;
#206 = CARTESIAN_POINT ( 'NONE',  ( 0.000000000000000000, 0.000000000000000000, 407.0000000000000000 ) ) ;
#207 = EDGE_LOOP ( 'NONE', ( #80, #183, #11, #83 ) ) ;
#208 = DIRECTION ( 'NONE',  ( 1.000000000000000000, 0.000000000000000000, 0.000000000000000000 ) ) ;
#209 = DIRECTION ( 'NONE',  ( 1.000000000000000000, 0.000000000000000000, 0.000000000000000000 ) ) ;
#210 = DIRECTION ( 'NONE',  ( 1.000000000000000000, 0.000000000000000000, 0.000000000000000000 ) ) ;
#211 = CARTESIAN_POINT ( 'NONE',  ( 5.750000000000000000, 7.041719095097280880E-16, 407.0000000000000000 ) ) ;
#212 = APPROVAL ( #225, 'NEURÈENÝ' ) ;
#213 = COORDINATED_UNIVERSAL_TIME_OFFSET ( 1, 0, .AHEAD. ) ;
#214 = PERSON_AND_ORGANIZATION ( #27, #198 ) ;
#215 = LOCAL_TIME ( 19, 20, 49.00000000000000000, #197 ) ;
#216 = CIRCLE ( 'NONE', #105, 5.750000000000000000 ) ;
#217 = CIRCLE ( 'NONE', #107, 9.000000000000000000 ) ;
#218 = DIRECTION ( 'NONE',  ( -0.000000000000000000, -0.000000000000000000, -1.000000000000000000 ) ) ;
#219 = ORIENTED_EDGE ( 'NONE', *, *, #87, .F. ) ;
#220 = ORIENTED_EDGE ( 'NONE', *, *, #69, .F. ) ;
#221 = DIRECTION ( 'NONE',  ( 1.000000000000000000, 0.000000000000000000, 0.000000000000000000 ) ) ;
#222 = CC_DESIGN_PERSON_AND_ORGANIZATION_ASSIGNMENT ( #66, #33, ( #49 ) ) ;
#223 = DIRECTION ( 'NONE',  ( 0.000000000000000000, 0.000000000000000000, 1.000000000000000000 ) ) ;
#224 = CARTESIAN_POINT ( 'NONE',  ( -5.750000000000000000, 0.000000000000000000, 407.0000000000000000 ) ) ;
#225 = APPROVAL_STATUS ( 'not_yet_approved' ) ;
#226 =( LENGTH_UNIT ( ) NAMED_UNIT ( * ) SI_UNIT ( .MILLI., .METRE. ) );
#227 = DIRECTION ( 'NONE',  ( 0.000000000000000000, 0.000000000000000000, 1.000000000000000000 ) ) ;
#228 = EDGE_LOOP ( 'NONE', ( #161, #219, #160, #72 ) ) ;
#229 = DIRECTION ( 'NONE',  ( 1.000000000000000000, 0.000000000000000000, -0.000000000000000000 ) ) ;
#230 = APPROVAL_PERSON_ORGANIZATION ( #214, #252, #135 ) ;
#231 = AXIS2_PLACEMENT_3D ( 'NONE', #148, #227, #127 ) ;
#232 = PRODUCT ( 'f8e3', 'f8e3', '', ( #7 ) ) ;
#233 = DATE_AND_TIME ( #177, #215 ) ;
#234 = AXIS2_PLACEMENT_3D ( 'NONE', #247, #100, #209 ) ;
#235 = APPROVAL_DATE_TIME ( #14, #179 ) ;
#236 = VECTOR ( 'NONE', #116, 1000.000000000000000 ) ;
#237 = EDGE_CURVE ( 'NONE', #57, #85, #131, .T. ) ;
#238 = DIRECTION ( 'NONE',  ( 0.000000000000000000, 0.000000000000000000, 1.000000000000000000 ) ) ;
#239 = ADVANCED_BREP_SHAPE_REPRESENTATION ( 'f8e3', ( #56, #145 ), #124 ) ;
#240 = ORIENTED_EDGE ( 'NONE', *, *, #37, .F. ) ;
#241 = VERTEX_POINT ( 'NONE', #187 ) ;
#242 = EDGE_CURVE ( 'NONE', #125, #147, #77, .T. ) ;
#243 = DIRECTION ( 'NONE',  ( 1.000000000000000000, 0.000000000000000000, 0.000000000000000000 ) ) ;
#244 = CARTESIAN_POINT ( 'NONE',  ( 0.000000000000000000, 0.000000000000000000, 7.000000000000000000 ) ) ;
#245 = FACE_BOUND ( 'NONE', #36, .T. ) ;
#246 = APPLICATION_PROTOCOL_DEFINITION ( 'international standard', 'config_control_design', 1994, #163 ) ;
#247 = CARTESIAN_POINT ( 'NONE',  ( 0.000000000000000000, 0.000000000000000000, 407.0000000000000000 ) ) ;
#248 = EDGE_LOOP ( 'NONE', ( #95, #51, #203, #101 ) ) ;
#249 =( NAMED_UNIT ( * ) SI_UNIT ( $, .STERADIAN. ) SOLID_ANGLE_UNIT ( ) );
#250 = DIRECTION ( 'NONE',  ( -1.000000000000000000, 0.000000000000000000, 0.000000000000000000 ) ) ;
#251 = EDGE_CURVE ( 'NONE', #241, #94, #217, .T. ) ;
#252 = APPROVAL ( #48, 'NEURÈENÝ' ) ;
#253 = AXIS2_PLACEMENT_3D ( 'NONE', #39, #167, #243 ) ;
#254 = PERSON_AND_ORGANIZATION_ROLE ( 'classification_officer' ) ;
#255 = APPROVAL_DATE_TIME ( #233, #252 ) ;
ENDSEC;
END-ISO-10303-21;
