ISO-10303-21;
HEADER;
FILE_DESCRIPTION (( 'STEP AP203' ),
    '1' );
FILE_NAME ('66d6.STEP',
    '2022-07-07T17:35:34',
    ( '' ),
    ( '' ),
    'SwSTEP 2.0',
    'SolidWorks 2019',
    '' );
FILE_SCHEMA (( 'CONFIG_CONTROL_DESIGN' ));
ENDSEC;

DATA;
#1 = FACE_OUTER_BOUND ( 'NONE', #58, .T. ) ;
#2 = CYLINDRICAL_SURFACE ( 'NONE', #184, 6.000000000000000888 ) ;
#3 = PRODUCT_DEFINITION_SHAPE ( 'NONE', 'NONE',  #25 ) ;
#4 = DIRECTION ( 'NONE',  ( 1.000000000000000000, 0.000000000000000000, 0.000000000000000000 ) ) ;
#5 = AXIS2_PLACEMENT_3D ( 'NONE', #24, #50, #166 ) ;
#6 = EDGE_LOOP ( 'NONE', ( #99, #90 ) ) ;
#7 = VERTEX_POINT ( 'NONE', #124 ) ;
#8 = LOCAL_TIME ( 19, 35, 34.00000000000000000, #72 ) ;
#9 = PERSON_AND_ORGANIZATION ( #18, #125 ) ;
#10 = DATE_TIME_ROLE ( 'creation_date' ) ;
#11 = PERSON_AND_ORGANIZATION_ROLE ( 'design_supplier' ) ;
#12 = AXIS2_PLACEMENT_3D ( 'NONE', #119, #104, #61 ) ;
#13 = DATE_TIME_ROLE ( 'classification_date' ) ;
#14 = LOCAL_TIME ( 19, 35, 34.00000000000000000, #242 ) ;
#15 = CARTESIAN_POINT ( 'NONE',  ( -3.500000000000000000, 0.000000000000000000, 405.0000000000000000 ) ) ;
#16 = EDGE_CURVE ( 'NONE', #223, #176, #94, .T. ) ;
#17 = DIRECTION ( 'NONE',  ( 0.000000000000000000, 0.000000000000000000, 1.000000000000000000 ) ) ;
#18 = PERSON ( 'NEURÈENÝ', 'NEURÈENÝ', 'NEURÈENÝ', ('NEURÈENÝ'), ('NEURÈENÝ'), ('NEURÈENÝ') ) ;
#19 = DIRECTION ( 'NONE',  ( 1.000000000000000000, 0.000000000000000000, 0.000000000000000000 ) ) ;
#20 = CYLINDRICAL_SURFACE ( 'NONE', #230, 3.500000000000000000 ) ;
#21 = CYLINDRICAL_SURFACE ( 'NONE', #12, 3.500000000000000000 ) ;
#22 = CARTESIAN_POINT ( 'NONE',  ( 0.000000000000000000, 0.000000000000000000, 405.0000000000000000 ) ) ;
#23 = EDGE_LOOP ( 'NONE', ( #29, #107, #68, #127 ) ) ;
#24 = CARTESIAN_POINT ( 'NONE',  ( 0.000000000000000000, 0.000000000000000000, 5.000000000000000000 ) ) ;
#25 = PRODUCT_DEFINITION ( 'NEZNÁMÝ', '', #132, #211 ) ;
#26 = PRODUCT ( '66d6', '66d6', '', ( #131 ) ) ;
#27 = DIRECTION ( 'NONE',  ( 1.000000000000000000, 0.000000000000000000, 0.000000000000000000 ) ) ;
#28 = AXIS2_PLACEMENT_3D ( 'NONE', #47, #126, #177 ) ;
#29 = ORIENTED_EDGE ( 'NONE', *, *, #16, .F. ) ;
#30 = ORIENTED_EDGE ( 'NONE', *, *, #70, .T. ) ;
#31 = AXIS2_PLACEMENT_3D ( 'NONE', #157, #80, #196 ) ;
#32 = ADVANCED_FACE ( 'NONE', ( #103 ), #2, .T. ) ;
#33 = PERSON_AND_ORGANIZATION ( #18, #125 ) ;
#34 = CC_DESIGN_APPROVAL ( #92, ( #60 ) ) ;
#35 = CALENDAR_DATE ( 2022, 7, 7 ) ;
#36 = VECTOR ( 'NONE', #84, 1000.000000000000000 ) ;
#37 = PERSON_AND_ORGANIZATION ( #18, #125 ) ;
#38 = FACE_BOUND ( 'NONE', #182, .T. ) ;
#39 = EDGE_CURVE ( 'NONE', #69, #71, #76, .T. ) ;
#40 = DIRECTION ( 'NONE',  ( 0.000000000000000000, 0.000000000000000000, 1.000000000000000000 ) ) ;
#41 = LOCAL_TIME ( 19, 35, 34.00000000000000000, #206 ) ;
#42 = CARTESIAN_POINT ( 'NONE',  ( -3.500000000000000000, 0.000000000000000000, 405.0000000000000000 ) ) ;
#43 = FACE_OUTER_BOUND ( 'NONE', #49, .T. ) ;
#44 = DIRECTION ( 'NONE',  ( 0.000000000000000000, 0.000000000000000000, 1.000000000000000000 ) ) ;
#45 = CARTESIAN_POINT ( 'NONE',  ( 0.000000000000000000, 0.000000000000000000, 5.000000000000000000 ) ) ;
#46 = AXIS2_PLACEMENT_3D ( 'NONE', #22, #185, #27 ) ;
#47 = CARTESIAN_POINT ( 'NONE',  ( 0.000000000000000000, 0.000000000000000000, 405.0000000000000000 ) ) ;
#48 = CIRCLE ( 'NONE', #98, 6.000000000000000888 ) ;
#49 = EDGE_LOOP ( 'NONE', ( #95, #218, #86, #189 ) ) ;
#50 = DIRECTION ( 'NONE',  ( 0.000000000000000000, 0.000000000000000000, 1.000000000000000000 ) ) ;
#51 = PERSON_AND_ORGANIZATION ( #18, #125 ) ;
#52 = EDGE_LOOP ( 'NONE', ( #240, #30 ) ) ;
#53 = CIRCLE ( 'NONE', #73, 3.500000000000000000 ) ;
#54 = DATE_AND_TIME ( #35, #8 ) ;
#55 = CC_DESIGN_APPROVAL ( #137, ( #132 ) ) ;
#56 = CALENDAR_DATE ( 2022, 7, 7 ) ;
#57 = APPLICATION_CONTEXT ( 'configuration controlled 3d designs of mechanical parts and assemblies' ) ;
#58 = EDGE_LOOP ( 'NONE', ( #247, #202, #204, #171 ) ) ;
#59 = DATE_AND_TIME ( #227, #41 ) ;
#60 = SECURITY_CLASSIFICATION ( '', '', #130 ) ;
#61 = DIRECTION ( 'NONE',  ( -1.000000000000000000, 0.000000000000000000, 0.000000000000000000 ) ) ;
#62 = DIRECTION ( 'NONE',  ( 1.000000000000000000, 0.000000000000000000, -0.000000000000000000 ) ) ;
#63 = AXIS2_PLACEMENT_3D ( 'NONE', #173, #169, #168 ) ;
#64 = CARTESIAN_POINT ( 'NONE',  ( -6.000000000000000888, 0.000000000000000000, 0.000000000000000000 ) ) ;
#65 = VERTEX_POINT ( 'NONE', #205 ) ;
#66 = DIRECTION ( 'NONE',  ( 1.000000000000000000, 0.000000000000000000, -0.000000000000000000 ) ) ;
#67 = APPLICATION_CONTEXT ( 'configuration controlled 3d designs of mechanical parts and assemblies' ) ;
#68 = ORIENTED_EDGE ( 'NONE', *, *, #243, .T. ) ;
#69 = VERTEX_POINT ( 'NONE', #146 ) ;
#70 = EDGE_CURVE ( 'NONE', #7, #144, #246, .T. ) ;
#71 = VERTEX_POINT ( 'NONE', #221 ) ;
#72 = COORDINATED_UNIVERSAL_TIME_OFFSET ( 1, 0, .AHEAD. ) ;
#73 = AXIS2_PLACEMENT_3D ( 'NONE', #142, #236, #19 ) ;
#74 = APPROVAL_STATUS ( 'not_yet_approved' ) ;
#75 = ORIENTED_EDGE ( 'NONE', *, *, #120, .F. ) ;
#76 = CIRCLE ( 'NONE', #5, 3.500000000000000000 ) ;
#77 = APPROVAL_ROLE ( '' ) ;
#78 = EDGE_CURVE ( 'NONE', #176, #148, #207, .T. ) ;
#79 =( LENGTH_UNIT ( ) NAMED_UNIT ( * ) SI_UNIT ( .MILLI., .METRE. ) );
#80 = DIRECTION ( 'NONE',  ( -0.000000000000000000, -0.000000000000000000, -1.000000000000000000 ) ) ;
#81 = FACE_OUTER_BOUND ( 'NONE', #6, .T. ) ;
#82 = DIRECTION ( 'NONE',  ( 0.000000000000000000, 0.000000000000000000, 1.000000000000000000 ) ) ;
#83 = ADVANCED_FACE ( 'NONE', ( #43 ), #20, .T. ) ;
#84 = DIRECTION ( 'NONE',  ( -0.000000000000000000, -0.000000000000000000, -1.000000000000000000 ) ) ;
#85 = DIRECTION ( 'NONE',  ( -0.000000000000000000, -0.000000000000000000, -1.000000000000000000 ) ) ;
#86 = ORIENTED_EDGE ( 'NONE', *, *, #213, .T. ) ;
#87 = CC_DESIGN_PERSON_AND_ORGANIZATION_ASSIGNMENT ( #109, #224, ( #132 ) ) ;
#88 = ORIENTED_EDGE ( 'NONE', *, *, #213, .F. ) ;
#89 = AXIS2_PLACEMENT_3D ( 'NONE', #45, #147, #4 ) ;
#90 = ORIENTED_EDGE ( 'NONE', *, *, #16, .T. ) ;
#91 = COORDINATED_UNIVERSAL_TIME_OFFSET ( 1, 0, .AHEAD. ) ;
#92 = APPROVAL ( #74, 'NEURÈENÝ' ) ;
#93 = APPROVAL_STATUS ( 'not_yet_approved' ) ;
#94 = CIRCLE ( 'NONE', #89, 6.000000000000000888 ) ;
#95 = ORIENTED_EDGE ( 'NONE', *, *, #70, .F. ) ;
#96 = APPROVAL_ROLE ( '' ) ;
#97 = CC_DESIGN_APPROVAL ( #175, ( #25 ) ) ;
#98 = AXIS2_PLACEMENT_3D ( 'NONE', #101, #40, #234 ) ;
#99 = ORIENTED_EDGE ( 'NONE', *, *, #245, .T. ) ;
#100 = CARTESIAN_POINT ( 'NONE',  ( 0.000000000000000000, 0.000000000000000000, 5.000000000000000000 ) ) ;
#101 = CARTESIAN_POINT ( 'NONE',  ( 0.000000000000000000, 0.000000000000000000, 0.000000000000000000 ) ) ;
#102 = DIRECTION ( 'NONE',  ( 1.000000000000000000, 0.000000000000000000, 0.000000000000000000 ) ) ;
#103 = FACE_OUTER_BOUND ( 'NONE', #23, .T. ) ;
#104 = DIRECTION ( 'NONE',  ( -0.000000000000000000, -0.000000000000000000, -1.000000000000000000 ) ) ;
#105 = CIRCLE ( 'NONE', #244, 6.000000000000000888 ) ;
#106 = CARTESIAN_POINT ( 'NONE',  ( 0.000000000000000000, 0.000000000000000000, 5.000000000000000000 ) ) ;
#107 = ORIENTED_EDGE ( 'NONE', *, *, #120, .T. ) ;
#108 = DIRECTION ( 'NONE',  ( -1.000000000000000000, 0.000000000000000000, 0.000000000000000000 ) ) ;
#109 = PERSON_AND_ORGANIZATION ( #18, #125 ) ;
#110 = PERSON_AND_ORGANIZATION_ROLE ( 'design_owner' ) ;
#111 = ADVANCED_FACE ( 'NONE', ( #164 ), #237, .F. ) ;
#112 = EDGE_LOOP ( 'NONE', ( #75, #238, #183, #128 ) ) ;
#113 = ADVANCED_FACE ( 'NONE', ( #145 ), #219, .T. ) ;
#114 = APPLICATION_PROTOCOL_DEFINITION ( 'international standard', 'config_control_design', 1994, #57 ) ;
#115 = APPLICATION_PROTOCOL_DEFINITION ( 'international standard', 'config_control_design', 1994, #67 ) ;
#116 = APPROVAL_PERSON_ORGANIZATION ( #9, #92, #96 ) ;
#117 = DIRECTION ( 'NONE',  ( 1.000000000000000000, 0.000000000000000000, 0.000000000000000000 ) ) ;
#118 = AXIS2_PLACEMENT_3D ( 'NONE', #217, #44, #117 ) ;
#119 = CARTESIAN_POINT ( 'NONE',  ( 0.000000000000000000, 0.000000000000000000, 405.0000000000000000 ) ) ;
#120 = EDGE_CURVE ( 'NONE', #223, #65, #179, .T. ) ;
#121 = CARTESIAN_POINT ( 'NONE',  ( 6.000000000000000888, 7.347880794884120722E-16, 5.000000000000000000 ) ) ;
#122 = CARTESIAN_POINT ( 'NONE',  ( 0.000000000000000000, 0.000000000000000000, 405.0000000000000000 ) ) ;
#123 = CC_DESIGN_DATE_AND_TIME_ASSIGNMENT ( #209, #10, ( #25 ) ) ;
#124 = CARTESIAN_POINT ( 'NONE',  ( 3.500000000000000000, 4.286263797015736595E-16, 405.0000000000000000 ) ) ;
#125 = ORGANIZATION ( 'NEURÈENÝ', 'NEURÈENÝ', '' ) ;
#126 = DIRECTION ( 'NONE',  ( 0.000000000000000000, 0.000000000000000000, 1.000000000000000000 ) ) ;
#127 = ORIENTED_EDGE ( 'NONE', *, *, #78, .F. ) ;
#128 = ORIENTED_EDGE ( 'NONE', *, *, #210, .T. ) ;
#129 = CC_DESIGN_PERSON_AND_ORGANIZATION_ASSIGNMENT ( #33, #110, ( #26 ) ) ;
#130 = SECURITY_CLASSIFICATION_LEVEL ( 'unclassified' ) ;
#131 = MECHANICAL_CONTEXT ( 'NONE', #57, 'mechanical' ) ;
#132 = PRODUCT_DEFINITION_FORMATION_WITH_SPECIFIED_SOURCE ( 'LIBOVOLNÝ', '', #26, .NOT_KNOWN. ) ;
#133 = ADVANCED_FACE ( 'NONE', ( #1 ), #21, .T. ) ;
#134 = DATE_AND_TIME ( #56, #186 ) ;
#135 = CC_DESIGN_PERSON_AND_ORGANIZATION_ASSIGNMENT ( #51, #11, ( #132 ) ) ;
#136 = APPROVAL_PERSON_ORGANIZATION ( #139, #175, #188 ) ;
#137 = APPROVAL ( #93, 'NEURÈENÝ' ) ;
#138 = APPROVAL_DATE_TIME ( #134, #92 ) ;
#139 = PERSON_AND_ORGANIZATION ( #18, #125 ) ;
#140 = DIRECTION ( 'NONE',  ( 0.000000000000000000, 0.000000000000000000, 1.000000000000000000 ) ) ;
#141 =( NAMED_UNIT ( * ) SI_UNIT ( $, .STERADIAN. ) SOLID_ANGLE_UNIT ( ) );
#142 = CARTESIAN_POINT ( 'NONE',  ( 0.000000000000000000, 0.000000000000000000, 405.0000000000000000 ) ) ;
#143 = CARTESIAN_POINT ( 'NONE',  ( -6.000000000000000888, 0.000000000000000000, 5.000000000000000000 ) ) ;
#144 = VERTEX_POINT ( 'NONE', #15 ) ;
#145 = FACE_OUTER_BOUND ( 'NONE', #52, .T. ) ;
#146 = CARTESIAN_POINT ( 'NONE',  ( -3.500000000000000000, 0.000000000000000000, 5.000000000000000000 ) ) ;
#147 = DIRECTION ( 'NONE',  ( 0.000000000000000000, 0.000000000000000000, 1.000000000000000000 ) ) ;
#148 = VERTEX_POINT ( 'NONE', #64 ) ;
#149 = COORDINATED_UNIVERSAL_TIME_OFFSET ( 1, 0, .AHEAD. ) ;
#150 = AXIS2_PLACEMENT_3D ( 'NONE', #255, #82, #66 ) ;
#151 = EDGE_CURVE ( 'NONE', #7, #71, #199, .T. ) ;
#152 = MANIFOLD_SOLID_BREP ( 'Pøidat vysunutím3', #194 ) ;
#153 = LOCAL_TIME ( 19, 35, 34.00000000000000000, #149 ) ;
#154 = PERSON_AND_ORGANIZATION_ROLE ( 'classification_officer' ) ;
#155 = PERSON_AND_ORGANIZATION ( #18, #125 ) ;
#156 = CIRCLE ( 'NONE', #239, 3.500000000000000000 ) ;
#157 = CARTESIAN_POINT ( 'NONE',  ( 0.000000000000000000, 0.000000000000000000, 5.000000000000000000 ) ) ;
#158 = EDGE_CURVE ( 'NONE', #144, #7, #53, .T. ) ;
#159 = VECTOR ( 'NONE', #198, 1000.000000000000000 ) ;
#160 = CC_DESIGN_SECURITY_CLASSIFICATION ( #60, ( #132 ) ) ;
#161 = FACE_OUTER_BOUND ( 'NONE', #112, .T. ) ;
#162 = CARTESIAN_POINT ( 'NONE',  ( -6.000000000000000888, 0.000000000000000000, 5.000000000000000000 ) ) ;
#163 = DIRECTION ( 'NONE',  ( -0.000000000000000000, -0.000000000000000000, -1.000000000000000000 ) ) ;
#164 = FACE_OUTER_BOUND ( 'NONE', #190, .T. ) ;
#165 = CC_DESIGN_PERSON_AND_ORGANIZATION_ASSIGNMENT ( #155, #208, ( #25 ) ) ;
#166 = DIRECTION ( 'NONE',  ( 1.000000000000000000, 0.000000000000000000, 0.000000000000000000 ) ) ;
#167 = ORIENTED_EDGE ( 'NONE', *, *, #39, .F. ) ;
#168 = DIRECTION ( 'NONE',  ( 1.000000000000000000, 0.000000000000000000, 0.000000000000000000 ) ) ;
#169 = DIRECTION ( 'NONE',  ( 0.000000000000000000, 0.000000000000000000, 1.000000000000000000 ) ) ;
#170 = PRODUCT_RELATED_PRODUCT_CATEGORY ( 'detail', '', ( #26 ) ) ;
#171 = ORIENTED_EDGE ( 'NONE', *, *, #39, .T. ) ;
#172 = APPROVAL_PERSON_ORGANIZATION ( #37, #137, #77 ) ;
#173 = CARTESIAN_POINT ( 'NONE',  ( 0.000000000000000000, 0.000000000000000000, 0.000000000000000000 ) ) ;
#174 = ADVANCED_FACE ( 'NONE', ( #38, #81 ), #216, .T. ) ;
#175 = APPROVAL ( #241, 'NEURÈENÝ' ) ;
#176 = VERTEX_POINT ( 'NONE', #143 ) ;
#177 = DIRECTION ( 'NONE',  ( 1.000000000000000000, 0.000000000000000000, -0.000000000000000000 ) ) ;
#178 = CARTESIAN_POINT ( 'NONE',  ( 0.000000000000000000, 0.000000000000000000, 5.000000000000000000 ) ) ;
#179 = LINE ( 'NONE', #214, #36 ) ;
#180 = DIRECTION ( 'NONE',  ( -0.000000000000000000, -0.000000000000000000, -1.000000000000000000 ) ) ;
#181 = LINE ( 'NONE', #42, #249 ) ;
#182 = EDGE_LOOP ( 'NONE', ( #167, #88 ) ) ;
#183 = ORIENTED_EDGE ( 'NONE', *, *, #78, .T. ) ;
#184 = AXIS2_PLACEMENT_3D ( 'NONE', #106, #235, #200 ) ;
#185 = DIRECTION ( 'NONE',  ( 0.000000000000000000, 0.000000000000000000, 1.000000000000000000 ) ) ;
#186 = LOCAL_TIME ( 19, 35, 34.00000000000000000, #91 ) ;
#187 = PERSON_AND_ORGANIZATION ( #18, #125 ) ;
#188 = APPROVAL_ROLE ( '' ) ;
#189 = ORIENTED_EDGE ( 'NONE', *, *, #192, .F. ) ;
#190 = EDGE_LOOP ( 'NONE', ( #220, #195 ) ) ;
#191 = DATE_AND_TIME ( #228, #14 ) ;
#192 = EDGE_CURVE ( 'NONE', #144, #69, #181, .T. ) ;
#193 = CIRCLE ( 'NONE', #118, 6.000000000000000888 ) ;
#194 = CLOSED_SHELL ( 'NONE', ( #83, #32, #233, #174, #111, #133, #113 ) ) ;
#195 = ORIENTED_EDGE ( 'NONE', *, *, #243, .F. ) ;
#196 = DIRECTION ( 'NONE',  ( -1.000000000000000000, 0.000000000000000000, 0.000000000000000000 ) ) ;
#197 = ADVANCED_BREP_SHAPE_REPRESENTATION ( '66d6', ( #152, #63 ), #203 ) ;
#198 = DIRECTION ( 'NONE',  ( -0.000000000000000000, -0.000000000000000000, -1.000000000000000000 ) ) ;
#199 = LINE ( 'NONE', #231, #159 ) ;
#200 = DIRECTION ( 'NONE',  ( -1.000000000000000000, 0.000000000000000000, 0.000000000000000000 ) ) ;
#201 = DIRECTION ( 'NONE',  ( 0.000000000000000000, 0.000000000000000000, 1.000000000000000000 ) ) ;
#202 = ORIENTED_EDGE ( 'NONE', *, *, #158, .F. ) ;
#203 =( GEOMETRIC_REPRESENTATION_CONTEXT ( 3 ) GLOBAL_UNCERTAINTY_ASSIGNED_CONTEXT ( ( #226 ) ) GLOBAL_UNIT_ASSIGNED_CONTEXT ( ( #79, #229, #141 ) ) REPRESENTATION_CONTEXT ( 'NONE', 'WORKASPACE' ) );
#204 = ORIENTED_EDGE ( 'NONE', *, *, #192, .T. ) ;
#205 = CARTESIAN_POINT ( 'NONE',  ( 6.000000000000000888, 7.347880794884120722E-16, 0.000000000000000000 ) ) ;
#206 = COORDINATED_UNIVERSAL_TIME_OFFSET ( 1, 0, .AHEAD. ) ;
#207 = LINE ( 'NONE', #162, #215 ) ;
#208 = PERSON_AND_ORGANIZATION_ROLE ( 'creator' ) ;
#209 = DATE_AND_TIME ( #212, #153 ) ;
#210 = EDGE_CURVE ( 'NONE', #148, #65, #105, .T. ) ;
#211 = DESIGN_CONTEXT ( 'detailed design', #67, 'design' ) ;
#212 = CALENDAR_DATE ( 2022, 7, 7 ) ;
#213 = EDGE_CURVE ( 'NONE', #71, #69, #156, .T. ) ;
#214 = CARTESIAN_POINT ( 'NONE',  ( 6.000000000000000888, 7.347880794884120722E-16, 5.000000000000000000 ) ) ;
#215 = VECTOR ( 'NONE', #85, 1000.000000000000000 ) ;
#216 = PLANE ( 'NONE',  #232 ) ;
#217 = CARTESIAN_POINT ( 'NONE',  ( 0.000000000000000000, 0.000000000000000000, 5.000000000000000000 ) ) ;
#218 = ORIENTED_EDGE ( 'NONE', *, *, #151, .T. ) ;
#219 = PLANE ( 'NONE',  #28 ) ;
#220 = ORIENTED_EDGE ( 'NONE', *, *, #210, .F. ) ;
#221 = CARTESIAN_POINT ( 'NONE',  ( 3.500000000000000000, 4.286263797015736595E-16, 5.000000000000000000 ) ) ;
#222 = CC_DESIGN_DATE_AND_TIME_ASSIGNMENT ( #59, #13, ( #60 ) ) ;
#223 = VERTEX_POINT ( 'NONE', #121 ) ;
#224 = PERSON_AND_ORGANIZATION_ROLE ( 'creator' ) ;
#225 = APPROVAL_DATE_TIME ( #191, #137 ) ;
#226 = UNCERTAINTY_MEASURE_WITH_UNIT (LENGTH_MEASURE( 1.000000000000000082E-05 ), #79, 'distance_accuracy_value', 'NONE');
#227 = CALENDAR_DATE ( 2022, 7, 7 ) ;
#228 = CALENDAR_DATE ( 2022, 7, 7 ) ;
#229 =( NAMED_UNIT ( * ) PLANE_ANGLE_UNIT ( ) SI_UNIT ( $, .RADIAN. ) );
#230 = AXIS2_PLACEMENT_3D ( 'NONE', #122, #180, #108 ) ;
#231 = CARTESIAN_POINT ( 'NONE',  ( 3.500000000000000000, 4.286263797015736595E-16, 405.0000000000000000 ) ) ;
#232 = AXIS2_PLACEMENT_3D ( 'NONE', #100, #201, #62 ) ;
#233 = ADVANCED_FACE ( 'NONE', ( #161 ), #253, .T. ) ;
#234 = DIRECTION ( 'NONE',  ( 1.000000000000000000, 0.000000000000000000, 0.000000000000000000 ) ) ;
#235 = DIRECTION ( 'NONE',  ( -0.000000000000000000, -0.000000000000000000, -1.000000000000000000 ) ) ;
#236 = DIRECTION ( 'NONE',  ( 0.000000000000000000, 0.000000000000000000, 1.000000000000000000 ) ) ;
#237 = PLANE ( 'NONE',  #150 ) ;
#238 = ORIENTED_EDGE ( 'NONE', *, *, #245, .F. ) ;
#239 = AXIS2_PLACEMENT_3D ( 'NONE', #178, #17, #102 ) ;
#240 = ORIENTED_EDGE ( 'NONE', *, *, #158, .T. ) ;
#241 = APPROVAL_STATUS ( 'not_yet_approved' ) ;
#242 = COORDINATED_UNIVERSAL_TIME_OFFSET ( 1, 0, .AHEAD. ) ;
#243 = EDGE_CURVE ( 'NONE', #65, #148, #48, .T. ) ;
#244 = AXIS2_PLACEMENT_3D ( 'NONE', #254, #140, #252 ) ;
#245 = EDGE_CURVE ( 'NONE', #176, #223, #193, .T. ) ;
#246 = CIRCLE ( 'NONE', #46, 3.500000000000000000 ) ;
#247 = ORIENTED_EDGE ( 'NONE', *, *, #151, .F. ) ;
#248 = APPROVAL_DATE_TIME ( #54, #175 ) ;
#249 = VECTOR ( 'NONE', #163, 1000.000000000000000 ) ;
#250 = SHAPE_DEFINITION_REPRESENTATION ( #3, #197 ) ;
#251 = CC_DESIGN_PERSON_AND_ORGANIZATION_ASSIGNMENT ( #187, #154, ( #60 ) ) ;
#252 = DIRECTION ( 'NONE',  ( 1.000000000000000000, 0.000000000000000000, 0.000000000000000000 ) ) ;
#253 = CYLINDRICAL_SURFACE ( 'NONE', #31, 6.000000000000000888 ) ;
#254 = CARTESIAN_POINT ( 'NONE',  ( 0.000000000000000000, 0.000000000000000000, 0.000000000000000000 ) ) ;
#255 = CARTESIAN_POINT ( 'NONE',  ( 0.000000000000000000, 0.000000000000000000, 0.000000000000000000 ) ) ;
ENDSEC;
END-ISO-10303-21;
