ISO-10303-21;
HEADER;
FILE_DESCRIPTION (( 'STEP AP203' ),
    '1' );
FILE_NAME ('f98a.STEP',
    '2023-02-13T10:42:37',
    ( '' ),
    ( '' ),
    'SwSTEP 2.0',
    'SolidWorks 2019',
    '' );
FILE_SCHEMA (( 'CONFIG_CONTROL_DESIGN' ));
ENDSEC;

DATA;
#1 = APPLICATION_PROTOCOL_DEFINITION ( 'international standard', 'config_control_design', 1994, #33 ) ;
#2 = MANIFOLD_SOLID_BREP ( 'Pøidat vysunutím3', #110 ) ;
#3 = ADVANCED_FACE ( 'NONE', ( #86 ), #144, .T. ) ;
#4 = ORIENTED_EDGE ( 'NONE', *, *, #72, .T. ) ;
#5 = PERSON_AND_ORGANIZATION_ROLE ( 'classification_officer' ) ;
#6 = CARTESIAN_POINT ( 'NONE',  ( 0.000000000000000000, 0.000000000000000000, 7.000000000000000000 ) ) ;
#7 = CC_DESIGN_PERSON_AND_ORGANIZATION_ASSIGNMENT ( #199, #43, ( #249 ) ) ;
#8 = ORIENTED_EDGE ( 'NONE', *, *, #145, .F. ) ;
#9 = CARTESIAN_POINT ( 'NONE',  ( 11.00000000000000000, 1.347111479062088405E-15, 0.000000000000000000 ) ) ;
#10 = DIRECTION ( 'NONE',  ( 1.000000000000000000, 0.000000000000000000, 0.000000000000000000 ) ) ;
#11 = CARTESIAN_POINT ( 'NONE',  ( -7.000000000000000000, 0.000000000000000000, 400.0000000000000000 ) ) ;
#12 = CC_DESIGN_PERSON_AND_ORGANIZATION_ASSIGNMENT ( #179, #5, ( #111 ) ) ;
#13 = DIRECTION ( 'NONE',  ( 1.000000000000000000, 0.000000000000000000, 0.000000000000000000 ) ) ;
#14 = CC_DESIGN_SECURITY_CLASSIFICATION ( #111, ( #249 ) ) ;
#15 = DIRECTION ( 'NONE',  ( -0.000000000000000000, -0.000000000000000000, -1.000000000000000000 ) ) ;
#16 = AXIS2_PLACEMENT_3D ( 'NONE', #62, #58, #174 ) ;
#17 = ORIENTED_EDGE ( 'NONE', *, *, #193, .F. ) ;
#18 = APPLICATION_CONTEXT ( 'configuration controlled 3d designs of mechanical parts and assemblies' ) ;
#19 = ORIENTED_EDGE ( 'NONE', *, *, #59, .T. ) ;
#20 = APPROVAL_STATUS ( 'not_yet_approved' ) ;
#21 = VERTEX_POINT ( 'NONE', #245 ) ;
#22 = EDGE_LOOP ( 'NONE', ( #79, #247, #99, #203 ) ) ;
#23 = ORIENTED_EDGE ( 'NONE', *, *, #154, .T. ) ;
#24 = LOCAL_TIME ( 11, 42, 37.00000000000000000, #176 ) ;
#25 = CYLINDRICAL_SURFACE ( 'NONE', #212, 11.00000000000000000 ) ;
#26 = LINE ( 'NONE', #223, #201 ) ;
#27 = CARTESIAN_POINT ( 'NONE',  ( -7.000000000000000000, 0.000000000000000000, 400.0000000000000000 ) ) ;
#28 = APPROVAL ( #20, 'NEURÈENÝ' ) ;
#29 = LINE ( 'NONE', #181, #171 ) ;
#30 = VECTOR ( 'NONE', #184, 1000.000000000000000 ) ;
#31 = CIRCLE ( 'NONE', #16, 11.00000000000000000 ) ;
#32 = DIRECTION ( 'NONE',  ( 0.000000000000000000, 0.000000000000000000, 1.000000000000000000 ) ) ;
#33 = APPLICATION_CONTEXT ( 'configuration controlled 3d designs of mechanical parts and assemblies' ) ;
#34 = AXIS2_PLACEMENT_3D ( 'NONE', #105, #143, #200 ) ;
#35 = LOCAL_TIME ( 11, 42, 37.00000000000000000, #149 ) ;
#36 = EDGE_LOOP ( 'NONE', ( #180, #163 ) ) ;
#37 = DIRECTION ( 'NONE',  ( 0.000000000000000000, 0.000000000000000000, 1.000000000000000000 ) ) ;
#38 = DATE_AND_TIME ( #132, #24 ) ;
#39 = EDGE_LOOP ( 'NONE', ( #23, #73 ) ) ;
#40 = PRODUCT_DEFINITION_SHAPE ( 'NONE', 'NONE',  #74 ) ;
#41 =( LENGTH_UNIT ( ) NAMED_UNIT ( * ) SI_UNIT ( .MILLI., .METRE. ) );
#42 = ORIENTED_EDGE ( 'NONE', *, *, #145, .T. ) ;
#43 = PERSON_AND_ORGANIZATION_ROLE ( 'creator' ) ;
#44 = DIRECTION ( 'NONE',  ( 0.000000000000000000, 0.000000000000000000, 1.000000000000000000 ) ) ;
#45 = DIRECTION ( 'NONE',  ( -0.000000000000000000, -0.000000000000000000, -1.000000000000000000 ) ) ;
#46 = DIRECTION ( 'NONE',  ( -0.000000000000000000, -0.000000000000000000, -1.000000000000000000 ) ) ;
#47 = DIRECTION ( 'NONE',  ( -0.000000000000000000, -0.000000000000000000, -1.000000000000000000 ) ) ;
#48 = EDGE_CURVE ( 'NONE', #243, #95, #252, .T. ) ;
#49 = CARTESIAN_POINT ( 'NONE',  ( 7.000000000000000000, 8.572527594031473190E-16, 7.000000000000000000 ) ) ;
#50 = APPROVAL_PERSON_ORGANIZATION ( #233, #173, #129 ) ;
#51 = APPROVAL ( #253, 'NEURÈENÝ' ) ;
#52 = DATE_AND_TIME ( #55, #158 ) ;
#53 = DIRECTION ( 'NONE',  ( 0.000000000000000000, 0.000000000000000000, 1.000000000000000000 ) ) ;
#54 = COORDINATED_UNIVERSAL_TIME_OFFSET ( 1, 0, .AHEAD. ) ;
#55 = CALENDAR_DATE ( 2023, 13, 2 ) ;
#56 = EDGE_CURVE ( 'NONE', #175, #119, #29, .T. ) ;
#57 = PERSON_AND_ORGANIZATION ( #178, #82 ) ;
#58 = DIRECTION ( 'NONE',  ( 0.000000000000000000, 0.000000000000000000, 1.000000000000000000 ) ) ;
#59 = EDGE_CURVE ( 'NONE', #207, #95, #26, .T. ) ;
#60 = DIRECTION ( 'NONE',  ( 0.000000000000000000, 0.000000000000000000, 1.000000000000000000 ) ) ;
#61 = AXIS2_PLACEMENT_3D ( 'NONE', #228, #44, #167 ) ;
#62 = CARTESIAN_POINT ( 'NONE',  ( 0.000000000000000000, 0.000000000000000000, 7.000000000000000000 ) ) ;
#63 = ORIENTED_EDGE ( 'NONE', *, *, #109, .F. ) ;
#64 = AXIS2_PLACEMENT_3D ( 'NONE', #211, #112, #187 ) ;
#65 = SECURITY_CLASSIFICATION_LEVEL ( 'unclassified' ) ;
#66 = DIRECTION ( 'NONE',  ( 0.000000000000000000, 0.000000000000000000, 1.000000000000000000 ) ) ;
#67 = CARTESIAN_POINT ( 'NONE',  ( 0.000000000000000000, 0.000000000000000000, 400.0000000000000000 ) ) ;
#68 = AXIS2_PLACEMENT_3D ( 'NONE', #67, #47, #139 ) ;
#69 = LINE ( 'NONE', #11, #30 ) ;
#70 = AXIS2_PLACEMENT_3D ( 'NONE', #254, #134, #237 ) ;
#71 = DIRECTION ( 'NONE',  ( -0.000000000000000000, -0.000000000000000000, -1.000000000000000000 ) ) ;
#72 = EDGE_CURVE ( 'NONE', #126, #175, #224, .T. ) ;
#73 = ORIENTED_EDGE ( 'NONE', *, *, #244, .T. ) ;
#74 = PRODUCT_DEFINITION ( 'NEZNÁMÝ', '', #249, #93 ) ;
#75 = CARTESIAN_POINT ( 'NONE',  ( 0.000000000000000000, 0.000000000000000000, 400.0000000000000000 ) ) ;
#76 = MECHANICAL_CONTEXT ( 'NONE', #33, 'mechanical' ) ;
#77 = ORIENTED_EDGE ( 'NONE', *, *, #90, .T. ) ;
#78 = CARTESIAN_POINT ( 'NONE',  ( -11.00000000000000000, 0.000000000000000000, 0.000000000000000000 ) ) ;
#79 = ORIENTED_EDGE ( 'NONE', *, *, #59, .F. ) ;
#80 = DATE_AND_TIME ( #152, #35 ) ;
#81 = COORDINATED_UNIVERSAL_TIME_OFFSET ( 1, 0, .AHEAD. ) ;
#82 = ORGANIZATION ( 'NEURÈENÝ', 'NEURÈENÝ', '' ) ;
#83 = DIRECTION ( 'NONE',  ( -0.000000000000000000, -0.000000000000000000, -1.000000000000000000 ) ) ;
#84 = DIRECTION ( 'NONE',  ( 1.000000000000000000, 0.000000000000000000, 0.000000000000000000 ) ) ;
#85 = FACE_OUTER_BOUND ( 'NONE', #153, .T. ) ;
#86 = FACE_OUTER_BOUND ( 'NONE', #194, .T. ) ;
#87 = DIRECTION ( 'NONE',  ( -1.000000000000000000, 0.000000000000000000, 0.000000000000000000 ) ) ;
#88 = SHAPE_DEFINITION_REPRESENTATION ( #40, #166 ) ;
#89 = PLANE ( 'NONE',  #234 ) ;
#90 = EDGE_CURVE ( 'NONE', #239, #119, #255, .T. ) ;
#91 = FACE_OUTER_BOUND ( 'NONE', #39, .T. ) ;
#92 = AXIS2_PLACEMENT_3D ( 'NONE', #98, #60, #191 ) ;
#93 = DESIGN_CONTEXT ( 'detailed design', #18, 'design' ) ;
#94 = DATE_TIME_ROLE ( 'creation_date' ) ;
#95 = VERTEX_POINT ( 'NONE', #9 ) ;
#96 = PERSON_AND_ORGANIZATION ( #178, #82 ) ;
#97 = PERSON_AND_ORGANIZATION ( #178, #82 ) ;
#98 = CARTESIAN_POINT ( 'NONE',  ( 0.000000000000000000, 0.000000000000000000, 7.000000000000000000 ) ) ;
#99 = ORIENTED_EDGE ( 'NONE', *, *, #109, .T. ) ;
#100 = PERSON_AND_ORGANIZATION ( #178, #82 ) ;
#101 = AXIS2_PLACEMENT_3D ( 'NONE', #182, #248, #84 ) ;
#102 = ORIENTED_EDGE ( 'NONE', *, *, #159, .T. ) ;
#103 = CC_DESIGN_APPROVAL ( #51, ( #74 ) ) ;
#104 = DIRECTION ( 'NONE',  ( 0.000000000000000000, 0.000000000000000000, 1.000000000000000000 ) ) ;
#105 = CARTESIAN_POINT ( 'NONE',  ( 0.000000000000000000, 0.000000000000000000, 400.0000000000000000 ) ) ;
#106 = ORIENTED_EDGE ( 'NONE', *, *, #193, .T. ) ;
#107 = PRODUCT ( 'f98a', 'f98a', '', ( #76 ) ) ;
#108 = CARTESIAN_POINT ( 'NONE',  ( 0.000000000000000000, 0.000000000000000000, 0.000000000000000000 ) ) ;
#109 = EDGE_CURVE ( 'NONE', #21, #243, #161, .T. ) ;
#110 = CLOSED_SHELL ( 'NONE', ( #3, #183, #113, #226, #188, #209, #205 ) ) ;
#111 = SECURITY_CLASSIFICATION ( '', '', #65 ) ;
#112 = DIRECTION ( 'NONE',  ( 0.000000000000000000, 0.000000000000000000, 1.000000000000000000 ) ) ;
#113 = ADVANCED_FACE ( 'NONE', ( #222 ), #25, .T. ) ;
#114 = FACE_OUTER_BOUND ( 'NONE', #130, .T. ) ;
#115 = UNCERTAINTY_MEASURE_WITH_UNIT (LENGTH_MEASURE( 1.000000000000000082E-05 ), #41, 'distance_accuracy_value', 'NONE');
#116 = CALENDAR_DATE ( 2023, 13, 2 ) ;
#117 = CC_DESIGN_APPROVAL ( #28, ( #249 ) ) ;
#118 = CC_DESIGN_PERSON_AND_ORGANIZATION_ASSIGNMENT ( #238, #218, ( #107 ) ) ;
#119 = VERTEX_POINT ( 'NONE', #49 ) ;
#120 = ORIENTED_EDGE ( 'NONE', *, *, #231, .T. ) ;
#121 = DATE_AND_TIME ( #116, #202 ) ;
#122 = APPROVAL_DATE_TIME ( #38, #28 ) ;
#123 = CARTESIAN_POINT ( 'NONE',  ( 0.000000000000000000, 0.000000000000000000, 7.000000000000000000 ) ) ;
#124 = DIRECTION ( 'NONE',  ( 1.000000000000000000, 0.000000000000000000, 0.000000000000000000 ) ) ;
#125 = DIRECTION ( 'NONE',  ( -1.000000000000000000, 0.000000000000000000, 0.000000000000000000 ) ) ;
#126 = VERTEX_POINT ( 'NONE', #27 ) ;
#127 = ORIENTED_EDGE ( 'NONE', *, *, #48, .F. ) ;
#128 = CARTESIAN_POINT ( 'NONE',  ( 11.00000000000000000, 1.347111479062088405E-15, 7.000000000000000000 ) ) ;
#129 = APPROVAL_ROLE ( '' ) ;
#130 = EDGE_LOOP ( 'NONE', ( #192, #219, #42, #77 ) ) ;
#131 = APPROVAL_PERSON_ORGANIZATION ( #57, #28, #215 ) ;
#132 = CALENDAR_DATE ( 2023, 13, 2 ) ;
#133 = ORIENTED_EDGE ( 'NONE', *, *, #56, .T. ) ;
#134 = DIRECTION ( 'NONE',  ( 0.000000000000000000, 0.000000000000000000, 1.000000000000000000 ) ) ;
#135 = AXIS2_PLACEMENT_3D ( 'NONE', #108, #66, #124 ) ;
#136 = AXIS2_PLACEMENT_3D ( 'NONE', #123, #46, #125 ) ;
#137 = DATE_AND_TIME ( #241, #185 ) ;
#138 = DIRECTION ( 'NONE',  ( -1.000000000000000000, 0.000000000000000000, 0.000000000000000000 ) ) ;
#139 = DIRECTION ( 'NONE',  ( -1.000000000000000000, 0.000000000000000000, 0.000000000000000000 ) ) ;
#140 = VECTOR ( 'NONE', #45, 1000.000000000000000 ) ;
#141 = CARTESIAN_POINT ( 'NONE',  ( 7.000000000000000000, 8.572527594031473190E-16, 400.0000000000000000 ) ) ;
#142 = AXIS2_PLACEMENT_3D ( 'NONE', #251, #15, #87 ) ;
#143 = DIRECTION ( 'NONE',  ( 0.000000000000000000, 0.000000000000000000, 1.000000000000000000 ) ) ;
#144 = CYLINDRICAL_SURFACE ( 'NONE', #68, 7.000000000000000000 ) ;
#145 = EDGE_CURVE ( 'NONE', #126, #239, #69, .T. ) ;
#146 = CIRCLE ( 'NONE', #92, 7.000000000000000000 ) ;
#147 = FACE_BOUND ( 'NONE', #36, .T. ) ;
#148 = APPROVAL_STATUS ( 'not_yet_approved' ) ;
#149 = COORDINATED_UNIVERSAL_TIME_OFFSET ( 1, 0, .AHEAD. ) ;
#150 =( NAMED_UNIT ( * ) SI_UNIT ( $, .STERADIAN. ) SOLID_ANGLE_UNIT ( ) );
#151 = AXIS2_PLACEMENT_3D ( 'NONE', #75, #53, #13 ) ;
#152 = CALENDAR_DATE ( 2023, 13, 2 ) ;
#153 = EDGE_LOOP ( 'NONE', ( #227, #19, #102, #63 ) ) ;
#154 = EDGE_CURVE ( 'NONE', #21, #207, #246, .T. ) ;
#155 = COORDINATED_UNIVERSAL_TIME_OFFSET ( 1, 0, .AHEAD. ) ;
#156 = PERSON_AND_ORGANIZATION_ROLE ( 'design_supplier' ) ;
#157 =( GEOMETRIC_REPRESENTATION_CONTEXT ( 3 ) GLOBAL_UNCERTAINTY_ASSIGNED_CONTEXT ( ( #115 ) ) GLOBAL_UNIT_ASSIGNED_CONTEXT ( ( #41, #240, #150 ) ) REPRESENTATION_CONTEXT ( 'NONE', 'WORKASPACE' ) );
#158 = LOCAL_TIME ( 11, 42, 37.00000000000000000, #54 ) ;
#159 = EDGE_CURVE ( 'NONE', #95, #243, #162, .T. ) ;
#160 = CARTESIAN_POINT ( 'NONE',  ( 0.000000000000000000, 0.000000000000000000, 0.000000000000000000 ) ) ;
#161 = LINE ( 'NONE', #186, #140 ) ;
#162 = CIRCLE ( 'NONE', #189, 11.00000000000000000 ) ;
#163 = ORIENTED_EDGE ( 'NONE', *, *, #231, .F. ) ;
#164 = FACE_OUTER_BOUND ( 'NONE', #242, .T. ) ;
#165 = CC_DESIGN_DATE_AND_TIME_ASSIGNMENT ( #121, #94, ( #74 ) ) ;
#166 = ADVANCED_BREP_SHAPE_REPRESENTATION ( 'f98a', ( #2, #70 ), #157 ) ;
#167 = DIRECTION ( 'NONE',  ( 1.000000000000000000, 0.000000000000000000, 0.000000000000000000 ) ) ;
#168 = PRODUCT_RELATED_PRODUCT_CATEGORY ( 'detail', '', ( #107 ) ) ;
#169 = APPROVAL_DATE_TIME ( #52, #173 ) ;
#170 = CYLINDRICAL_SURFACE ( 'NONE', #142, 7.000000000000000000 ) ;
#171 = VECTOR ( 'NONE', #206, 1000.000000000000000 ) ;
#172 = APPLICATION_PROTOCOL_DEFINITION ( 'international standard', 'config_control_design', 1994, #18 ) ;
#173 = APPROVAL ( #148, 'NEURÈENÝ' ) ;
#174 = DIRECTION ( 'NONE',  ( 1.000000000000000000, 0.000000000000000000, 0.000000000000000000 ) ) ;
#175 = VERTEX_POINT ( 'NONE', #141 ) ;
#176 = COORDINATED_UNIVERSAL_TIME_OFFSET ( 1, 0, .AHEAD. ) ;
#177 = CARTESIAN_POINT ( 'NONE',  ( -7.000000000000000000, 0.000000000000000000, 7.000000000000000000 ) ) ;
#178 = PERSON ( 'NEURÈENÝ', 'NEURÈENÝ', 'NEURÈENÝ', ('NEURÈENÝ'), ('NEURÈENÝ'), ('NEURÈENÝ') ) ;
#179 = PERSON_AND_ORGANIZATION ( #178, #82 ) ;
#180 = ORIENTED_EDGE ( 'NONE', *, *, #90, .F. ) ;
#181 = CARTESIAN_POINT ( 'NONE',  ( 7.000000000000000000, 8.572527594031473190E-16, 400.0000000000000000 ) ) ;
#182 = CARTESIAN_POINT ( 'NONE',  ( 0.000000000000000000, 0.000000000000000000, 7.000000000000000000 ) ) ;
#183 = ADVANCED_FACE ( 'NONE', ( #85 ), #225, .T. ) ;
#184 = DIRECTION ( 'NONE',  ( -0.000000000000000000, -0.000000000000000000, -1.000000000000000000 ) ) ;
#185 = LOCAL_TIME ( 11, 42, 37.00000000000000000, #81 ) ;
#186 = CARTESIAN_POINT ( 'NONE',  ( -11.00000000000000000, 0.000000000000000000, 7.000000000000000000 ) ) ;
#187 = DIRECTION ( 'NONE',  ( 1.000000000000000000, 0.000000000000000000, -0.000000000000000000 ) ) ;
#188 = ADVANCED_FACE ( 'NONE', ( #164 ), #204, .F. ) ;
#189 = AXIS2_PLACEMENT_3D ( 'NONE', #160, #104, #10 ) ;
#190 = AXIS2_PLACEMENT_3D ( 'NONE', #210, #37, #217 ) ;
#191 = DIRECTION ( 'NONE',  ( 1.000000000000000000, 0.000000000000000000, 0.000000000000000000 ) ) ;
#192 = ORIENTED_EDGE ( 'NONE', *, *, #56, .F. ) ;
#193 = EDGE_CURVE ( 'NONE', #175, #126, #208, .T. ) ;
#194 = EDGE_LOOP ( 'NONE', ( #17, #133, #120, #8 ) ) ;
#195 = CC_DESIGN_APPROVAL ( #173, ( #111 ) ) ;
#196 = ORIENTED_EDGE ( 'NONE', *, *, #159, .F. ) ;
#197 = APPROVAL_ROLE ( '' ) ;
#198 = EDGE_LOOP ( 'NONE', ( #4, #106 ) ) ;
#199 = PERSON_AND_ORGANIZATION ( #178, #82 ) ;
#200 = DIRECTION ( 'NONE',  ( 1.000000000000000000, 0.000000000000000000, 0.000000000000000000 ) ) ;
#201 = VECTOR ( 'NONE', #71, 1000.000000000000000 ) ;
#202 = LOCAL_TIME ( 11, 42, 37.00000000000000000, #155 ) ;
#203 = ORIENTED_EDGE ( 'NONE', *, *, #48, .T. ) ;
#204 = PLANE ( 'NONE',  #64 ) ;
#205 = ADVANCED_FACE ( 'NONE', ( #230 ), #89, .T. ) ;
#206 = DIRECTION ( 'NONE',  ( -0.000000000000000000, -0.000000000000000000, -1.000000000000000000 ) ) ;
#207 = VERTEX_POINT ( 'NONE', #128 ) ;
#208 = CIRCLE ( 'NONE', #151, 7.000000000000000000 ) ;
#209 = ADVANCED_FACE ( 'NONE', ( #114 ), #170, .T. ) ;
#210 = CARTESIAN_POINT ( 'NONE',  ( 0.000000000000000000, 0.000000000000000000, 7.000000000000000000 ) ) ;
#211 = CARTESIAN_POINT ( 'NONE',  ( 0.000000000000000000, 0.000000000000000000, 0.000000000000000000 ) ) ;
#212 = AXIS2_PLACEMENT_3D ( 'NONE', #6, #83, #138 ) ;
#213 = CC_DESIGN_PERSON_AND_ORGANIZATION_ASSIGNMENT ( #97, #236, ( #74 ) ) ;
#214 = APPROVAL_DATE_TIME ( #80, #51 ) ;
#215 = APPROVAL_ROLE ( '' ) ;
#216 = CC_DESIGN_PERSON_AND_ORGANIZATION_ASSIGNMENT ( #100, #156, ( #249 ) ) ;
#217 = DIRECTION ( 'NONE',  ( 1.000000000000000000, 0.000000000000000000, -0.000000000000000000 ) ) ;
#218 = PERSON_AND_ORGANIZATION_ROLE ( 'design_owner' ) ;
#219 = ORIENTED_EDGE ( 'NONE', *, *, #72, .F. ) ;
#220 = CC_DESIGN_DATE_AND_TIME_ASSIGNMENT ( #137, #221, ( #111 ) ) ;
#221 = DATE_TIME_ROLE ( 'classification_date' ) ;
#222 = FACE_OUTER_BOUND ( 'NONE', #22, .T. ) ;
#223 = CARTESIAN_POINT ( 'NONE',  ( 11.00000000000000000, 1.347111479062088405E-15, 7.000000000000000000 ) ) ;
#224 = CIRCLE ( 'NONE', #34, 7.000000000000000000 ) ;
#225 = CYLINDRICAL_SURFACE ( 'NONE', #136, 11.00000000000000000 ) ;
#226 = ADVANCED_FACE ( 'NONE', ( #147, #91 ), #235, .T. ) ;
#227 = ORIENTED_EDGE ( 'NONE', *, *, #244, .F. ) ;
#228 = CARTESIAN_POINT ( 'NONE',  ( 0.000000000000000000, 0.000000000000000000, 7.000000000000000000 ) ) ;
#229 = APPROVAL_PERSON_ORGANIZATION ( #96, #51, #197 ) ;
#230 = FACE_OUTER_BOUND ( 'NONE', #198, .T. ) ;
#231 = EDGE_CURVE ( 'NONE', #119, #239, #146, .T. ) ;
#232 = CARTESIAN_POINT ( 'NONE',  ( 0.000000000000000000, 0.000000000000000000, 400.0000000000000000 ) ) ;
#233 = PERSON_AND_ORGANIZATION ( #178, #82 ) ;
#234 = AXIS2_PLACEMENT_3D ( 'NONE', #232, #32, #250 ) ;
#235 = PLANE ( 'NONE',  #190 ) ;
#236 = PERSON_AND_ORGANIZATION_ROLE ( 'creator' ) ;
#237 = DIRECTION ( 'NONE',  ( 1.000000000000000000, 0.000000000000000000, 0.000000000000000000 ) ) ;
#238 = PERSON_AND_ORGANIZATION ( #178, #82 ) ;
#239 = VERTEX_POINT ( 'NONE', #177 ) ;
#240 =( NAMED_UNIT ( * ) PLANE_ANGLE_UNIT ( ) SI_UNIT ( $, .RADIAN. ) );
#241 = CALENDAR_DATE ( 2023, 13, 2 ) ;
#242 = EDGE_LOOP ( 'NONE', ( #127, #196 ) ) ;
#243 = VERTEX_POINT ( 'NONE', #78 ) ;
#244 = EDGE_CURVE ( 'NONE', #207, #21, #31, .T. ) ;
#245 = CARTESIAN_POINT ( 'NONE',  ( -11.00000000000000000, 0.000000000000000000, 7.000000000000000000 ) ) ;
#246 = CIRCLE ( 'NONE', #61, 11.00000000000000000 ) ;
#247 = ORIENTED_EDGE ( 'NONE', *, *, #154, .F. ) ;
#248 = DIRECTION ( 'NONE',  ( 0.000000000000000000, 0.000000000000000000, 1.000000000000000000 ) ) ;
#249 = PRODUCT_DEFINITION_FORMATION_WITH_SPECIFIED_SOURCE ( 'LIBOVOLNÝ', '', #107, .NOT_KNOWN. ) ;
#250 = DIRECTION ( 'NONE',  ( 1.000000000000000000, 0.000000000000000000, -0.000000000000000000 ) ) ;
#251 = CARTESIAN_POINT ( 'NONE',  ( 0.000000000000000000, 0.000000000000000000, 400.0000000000000000 ) ) ;
#252 = CIRCLE ( 'NONE', #135, 11.00000000000000000 ) ;
#253 = APPROVAL_STATUS ( 'not_yet_approved' ) ;
#254 = CARTESIAN_POINT ( 'NONE',  ( 0.000000000000000000, 0.000000000000000000, 0.000000000000000000 ) ) ;
#255 = CIRCLE ( 'NONE', #101, 7.000000000000000000 ) ;
ENDSEC;
END-ISO-10303-21;
