ISO-10303-21;
HEADER;
FILE_DESCRIPTION (( 'STEP AP203' ),
    '1' );
FILE_NAME ('13f4.STEP',
    '2022-07-07T17:55:05',
    ( '' ),
    ( '' ),
    'SwSTEP 2.0',
    'SolidWorks 2019',
    '' );
FILE_SCHEMA (( 'CONFIG_CONTROL_DESIGN' ));
ENDSEC;

DATA;
#1 = CYLINDRICAL_SURFACE ( 'NONE', #47, 1.600000000000000089 ) ;
#2 = FACE_OUTER_BOUND ( 'NONE', #135, .T. ) ;
#3 = ADVANCED_FACE ( 'NONE', ( #2 ), #1, .T. ) ;
#4 = DIRECTION ( 'NONE',  ( 0.000000000000000000, 0.000000000000000000, 1.000000000000000000 ) ) ;
#5 = EDGE_CURVE ( 'NONE', #178, #154, #242, .T. ) ;
#6 = CYLINDRICAL_SURFACE ( 'NONE', #162, 3.000000000000000444 ) ;
#7 = LINE ( 'NONE', #191, #68 ) ;
#8 = PERSON_AND_ORGANIZATION ( #246, #240 ) ;
#9 = LOCAL_TIME ( 19, 55, 5.000000000000000000, #29 ) ;
#10 = DIRECTION ( 'NONE',  ( 1.000000000000000000, 0.000000000000000000, 0.000000000000000000 ) ) ;
#11 = DIRECTION ( 'NONE',  ( 1.000000000000000000, 0.000000000000000000, -0.000000000000000000 ) ) ;
#12 = ORIENTED_EDGE ( 'NONE', *, *, #128, .T. ) ;
#13 = ORIENTED_EDGE ( 'NONE', *, *, #231, .T. ) ;
#14 = VECTOR ( 'NONE', #186, 1000.000000000000000 ) ;
#15 = ORIENTED_EDGE ( 'NONE', *, *, #5, .F. ) ;
#16 = CC_DESIGN_PERSON_AND_ORGANIZATION_ASSIGNMENT ( #181, #113, ( #164 ) ) ;
#17 = FACE_OUTER_BOUND ( 'NONE', #78, .T. ) ;
#18 = COORDINATED_UNIVERSAL_TIME_OFFSET ( 1, 0, .AHEAD. ) ;
#19 = AXIS2_PLACEMENT_3D ( 'NONE', #225, #150, #30 ) ;
#20 = DIRECTION ( 'NONE',  ( 1.000000000000000000, 0.000000000000000000, 0.000000000000000000 ) ) ;
#21 = CC_DESIGN_APPROVAL ( #199, ( #229 ) ) ;
#22 = EDGE_CURVE ( 'NONE', #110, #255, #172, .T. ) ;
#23 = CIRCLE ( 'NONE', #205, 1.600000000000000089 ) ;
#24 = CC_DESIGN_SECURITY_CLASSIFICATION ( #88, ( #212 ) ) ;
#25 = DIRECTION ( 'NONE',  ( 0.000000000000000000, 0.000000000000000000, 1.000000000000000000 ) ) ;
#26 = DIRECTION ( 'NONE',  ( 0.000000000000000000, 0.000000000000000000, 1.000000000000000000 ) ) ;
#27 = DATE_AND_TIME ( #168, #96 ) ;
#28 = DIRECTION ( 'NONE',  ( -1.000000000000000000, 0.000000000000000000, 0.000000000000000000 ) ) ;
#29 = COORDINATED_UNIVERSAL_TIME_OFFSET ( 1, 0, .AHEAD. ) ;
#30 = DIRECTION ( 'NONE',  ( 1.000000000000000000, 0.000000000000000000, -0.000000000000000000 ) ) ;
#31 = CIRCLE ( 'NONE', #180, 1.600000000000000089 ) ;
#32 = ORIENTED_EDGE ( 'NONE', *, *, #203, .T. ) ;
#33 = ORIENTED_EDGE ( 'NONE', *, *, #120, .F. ) ;
#34 = ADVANCED_FACE ( 'NONE', ( #17 ), #64, .T. ) ;
#35 = VERTEX_POINT ( 'NONE', #208 ) ;
#36 = DIRECTION ( 'NONE',  ( 0.000000000000000000, 0.000000000000000000, 1.000000000000000000 ) ) ;
#37 = DIRECTION ( 'NONE',  ( 0.000000000000000000, 0.000000000000000000, 1.000000000000000000 ) ) ;
#38 = ADVANCED_FACE ( 'NONE', ( #107 ), #147, .T. ) ;
#39 = DIRECTION ( 'NONE',  ( -0.000000000000000000, -0.000000000000000000, -1.000000000000000000 ) ) ;
#40 = DATE_TIME_ROLE ( 'creation_date' ) ;
#41 = EDGE_CURVE ( 'NONE', #133, #63, #79, .T. ) ;
#42 = DATE_AND_TIME ( #82, #100 ) ;
#43 = PERSON_AND_ORGANIZATION ( #246, #240 ) ;
#44 = CARTESIAN_POINT ( 'NONE',  ( 0.000000000000000000, 0.000000000000000000, 3.000000000000000000 ) ) ;
#45 = LOCAL_TIME ( 19, 55, 5.000000000000000000, #18 ) ;
#46 = VECTOR ( 'NONE', #142, 1000.000000000000000 ) ;
#47 = AXIS2_PLACEMENT_3D ( 'NONE', #94, #176, #80 ) ;
#48 = DATE_AND_TIME ( #89, #9 ) ;
#49 = PRODUCT_DEFINITION_SHAPE ( 'NONE', 'NONE',  #229 ) ;
#50 = LINE ( 'NONE', #85, #126 ) ;
#51 = DIRECTION ( 'NONE',  ( 0.000000000000000000, 0.000000000000000000, 1.000000000000000000 ) ) ;
#52 = CARTESIAN_POINT ( 'NONE',  ( -3.000000000000000444, 0.000000000000000000, 3.000000000000000000 ) ) ;
#53 = AXIS2_PLACEMENT_3D ( 'NONE', #87, #124, #213 ) ;
#54 = DIRECTION ( 'NONE',  ( 1.000000000000000000, 0.000000000000000000, 0.000000000000000000 ) ) ;
#55 = EDGE_CURVE ( 'NONE', #154, #255, #7, .T. ) ;
#56 = FACE_OUTER_BOUND ( 'NONE', #109, .T. ) ;
#57 = ORIENTED_EDGE ( 'NONE', *, *, #125, .F. ) ;
#58 = DIRECTION ( 'NONE',  ( 0.000000000000000000, 0.000000000000000000, 1.000000000000000000 ) ) ;
#59 = ADVANCED_FACE ( 'NONE', ( #167 ), #103, .F. ) ;
#60 = APPROVAL_PERSON_ORGANIZATION ( #222, #223, #198 ) ;
#61 = DIRECTION ( 'NONE',  ( 1.000000000000000000, 0.000000000000000000, 0.000000000000000000 ) ) ;
#62 = CC_DESIGN_PERSON_AND_ORGANIZATION_ASSIGNMENT ( #8, #249, ( #212 ) ) ;
#63 = VERTEX_POINT ( 'NONE', #190 ) ;
#64 = CYLINDRICAL_SURFACE ( 'NONE', #165, 3.000000000000000444 ) ;
#65 = APPROVAL_ROLE ( '' ) ;
#66 = MECHANICAL_CONTEXT ( 'NONE', #182, 'mechanical' ) ;
#67 = COORDINATED_UNIVERSAL_TIME_OFFSET ( 1, 0, .AHEAD. ) ;
#68 = VECTOR ( 'NONE', #228, 1000.000000000000000 ) ;
#69 = DATE_AND_TIME ( #201, #169 ) ;
#70 = AXIS2_PLACEMENT_3D ( 'NONE', #136, #36, #197 ) ;
#71 = CARTESIAN_POINT ( 'NONE',  ( 3.000000000000000444, 3.673940397442060361E-16, 3.000000000000000000 ) ) ;
#72 = CARTESIAN_POINT ( 'NONE',  ( 0.000000000000000000, 0.000000000000000000, 0.000000000000000000 ) ) ;
#73 = CARTESIAN_POINT ( 'NONE',  ( -1.600000000000000089, 0.000000000000000000, 3.000000000000000000 ) ) ;
#74 = CARTESIAN_POINT ( 'NONE',  ( 3.000000000000000444, 3.673940397442060361E-16, 0.000000000000000000 ) ) ;
#75 = CC_DESIGN_PERSON_AND_ORGANIZATION_ASSIGNMENT ( #43, #114, ( #229 ) ) ;
#76 = AXIS2_PLACEMENT_3D ( 'NONE', #241, #4, #179 ) ;
#77 = ORIENTED_EDGE ( 'NONE', *, *, #84, .F. ) ;
#78 = EDGE_LOOP ( 'NONE', ( #15, #215, #195, #138 ) ) ;
#79 = CIRCLE ( 'NONE', #237, 1.600000000000000089 ) ;
#80 = DIRECTION ( 'NONE',  ( -1.000000000000000000, 0.000000000000000000, 0.000000000000000000 ) ) ;
#81 = EDGE_LOOP ( 'NONE', ( #234, #156 ) ) ;
#82 = CALENDAR_DATE ( 2022, 7, 7 ) ;
#83 = AXIS2_PLACEMENT_3D ( 'NONE', #170, #189, #54 ) ;
#84 = EDGE_CURVE ( 'NONE', #133, #35, #50, .T. ) ;
#85 = CARTESIAN_POINT ( 'NONE',  ( 1.600000000000000089, 1.959434878635765230E-16, 203.0000000000000000 ) ) ;
#86 = COORDINATED_UNIVERSAL_TIME_OFFSET ( 1, 0, .AHEAD. ) ;
#87 = CARTESIAN_POINT ( 'NONE',  ( 0.000000000000000000, 0.000000000000000000, 203.0000000000000000 ) ) ;
#88 = SECURITY_CLASSIFICATION ( '', '', #166 ) ;
#89 = CALENDAR_DATE ( 2022, 7, 7 ) ;
#90 = EDGE_CURVE ( 'NONE', #154, #178, #192, .T. ) ;
#91 = DIRECTION ( 'NONE',  ( -0.000000000000000000, -0.000000000000000000, -1.000000000000000000 ) ) ;
#92 = CARTESIAN_POINT ( 'NONE',  ( 0.000000000000000000, 0.000000000000000000, 3.000000000000000000 ) ) ;
#93 = ORIENTED_EDGE ( 'NONE', *, *, #128, .F. ) ;
#94 = CARTESIAN_POINT ( 'NONE',  ( 0.000000000000000000, 0.000000000000000000, 203.0000000000000000 ) ) ;
#95 = ORIENTED_EDGE ( 'NONE', *, *, #219, .T. ) ;
#96 = LOCAL_TIME ( 19, 55, 5.000000000000000000, #86 ) ;
#97 = ORIENTED_EDGE ( 'NONE', *, *, #231, .F. ) ;
#98 = LINE ( 'NONE', #117, #46 ) ;
#99 = APPROVAL_STATUS ( 'not_yet_approved' ) ;
#100 = LOCAL_TIME ( 19, 55, 5.000000000000000000, #67 ) ;
#101 = CLOSED_SHELL ( 'NONE', ( #115, #34, #175, #148, #59, #3, #38 ) ) ;
#102 =( GEOMETRIC_REPRESENTATION_CONTEXT ( 3 ) GLOBAL_UNCERTAINTY_ASSIGNED_CONTEXT ( ( #232 ) ) GLOBAL_UNIT_ASSIGNED_CONTEXT ( ( #200, #183, #204 ) ) REPRESENTATION_CONTEXT ( 'NONE', 'WORKASPACE' ) );
#103 = PLANE ( 'NONE',  #245 ) ;
#104 = DIRECTION ( 'NONE',  ( 1.000000000000000000, 0.000000000000000000, 0.000000000000000000 ) ) ;
#105 = APPROVAL_STATUS ( 'not_yet_approved' ) ;
#106 = DIRECTION ( 'NONE',  ( 0.000000000000000000, 0.000000000000000000, 1.000000000000000000 ) ) ;
#107 = FACE_OUTER_BOUND ( 'NONE', #134, .T. ) ;
#108 = EDGE_LOOP ( 'NONE', ( #217, #112, #12, #97 ) ) ;
#109 = EDGE_LOOP ( 'NONE', ( #235, #214 ) ) ;
#110 = VERTEX_POINT ( 'NONE', #74 ) ;
#111 = CIRCLE ( 'NONE', #196, 1.600000000000000089 ) ;
#112 = ORIENTED_EDGE ( 'NONE', *, *, #84, .T. ) ;
#113 = PERSON_AND_ORGANIZATION_ROLE ( 'design_owner' ) ;
#114 = PERSON_AND_ORGANIZATION_ROLE ( 'creator' ) ;
#115 = ADVANCED_FACE ( 'NONE', ( #250 ), #130, .T. ) ;
#116 = COORDINATED_UNIVERSAL_TIME_OFFSET ( 1, 0, .AHEAD. ) ;
#117 = CARTESIAN_POINT ( 'NONE',  ( -1.600000000000000089, 0.000000000000000000, 203.0000000000000000 ) ) ;
#118 = ADVANCED_BREP_SHAPE_REPRESENTATION ( '13f4', ( #155, #76 ), #102 ) ;
#119 = SHAPE_DEFINITION_REPRESENTATION ( #49, #118 ) ;
#120 = EDGE_CURVE ( 'NONE', #178, #110, #209, .T. ) ;
#121 = PERSON_AND_ORGANIZATION ( #246, #240 ) ;
#122 = DIRECTION ( 'NONE',  ( -1.000000000000000000, 0.000000000000000000, 0.000000000000000000 ) ) ;
#123 = APPROVAL_DATE_TIME ( #48, #129 ) ;
#124 = DIRECTION ( 'NONE',  ( -0.000000000000000000, -0.000000000000000000, -1.000000000000000000 ) ) ;
#125 = EDGE_CURVE ( 'NONE', #63, #133, #111, .T. ) ;
#126 = VECTOR ( 'NONE', #91, 1000.000000000000000 ) ;
#127 = DIRECTION ( 'NONE',  ( 0.000000000000000000, 0.000000000000000000, 1.000000000000000000 ) ) ;
#128 = EDGE_CURVE ( 'NONE', #35, #177, #23, .T. ) ;
#129 = APPROVAL ( #105, 'NEURÈENÝ' ) ;
#130 = CYLINDRICAL_SURFACE ( 'NONE', #53, 1.600000000000000089 ) ;
#131 = CARTESIAN_POINT ( 'NONE',  ( 0.000000000000000000, 0.000000000000000000, 203.0000000000000000 ) ) ;
#132 = AXIS2_PLACEMENT_3D ( 'NONE', #226, #25, #173 ) ;
#133 = VERTEX_POINT ( 'NONE', #152 ) ;
#134 = EDGE_LOOP ( 'NONE', ( #233, #254 ) ) ;
#135 = EDGE_LOOP ( 'NONE', ( #77, #57, #13, #95 ) ) ;
#136 = CARTESIAN_POINT ( 'NONE',  ( 0.000000000000000000, 0.000000000000000000, 0.000000000000000000 ) ) ;
#137 = CC_DESIGN_PERSON_AND_ORGANIZATION_ASSIGNMENT ( #121, #188, ( #88 ) ) ;
#138 = ORIENTED_EDGE ( 'NONE', *, *, #55, .F. ) ;
#139 = DIRECTION ( 'NONE',  ( 1.000000000000000000, 0.000000000000000000, 0.000000000000000000 ) ) ;
#140 = CC_DESIGN_APPROVAL ( #129, ( #88 ) ) ;
#141 = APPLICATION_PROTOCOL_DEFINITION ( 'international standard', 'config_control_design', 1994, #194 ) ;
#142 = DIRECTION ( 'NONE',  ( -0.000000000000000000, -0.000000000000000000, -1.000000000000000000 ) ) ;
#143 = APPROVAL_DATE_TIME ( #69, #223 ) ;
#144 = APPROVAL_PERSON_ORGANIZATION ( #161, #199, #65 ) ;
#145 = AXIS2_PLACEMENT_3D ( 'NONE', #174, #58, #61 ) ;
#146 = AXIS2_PLACEMENT_3D ( 'NONE', #149, #218, #20 ) ;
#147 = PLANE ( 'NONE',  #132 ) ;
#148 = ADVANCED_FACE ( 'NONE', ( #230, #56 ), #171, .T. ) ;
#149 = CARTESIAN_POINT ( 'NONE',  ( 0.000000000000000000, 0.000000000000000000, 0.000000000000000000 ) ) ;
#150 = DIRECTION ( 'NONE',  ( 0.000000000000000000, 0.000000000000000000, 1.000000000000000000 ) ) ;
#151 = CARTESIAN_POINT ( 'NONE',  ( 0.000000000000000000, 0.000000000000000000, 203.0000000000000000 ) ) ;
#152 = CARTESIAN_POINT ( 'NONE',  ( 1.600000000000000089, 1.959434878635765230E-16, 203.0000000000000000 ) ) ;
#153 = EDGE_LOOP ( 'NONE', ( #33, #193, #236, #32 ) ) ;
#154 = VERTEX_POINT ( 'NONE', #52 ) ;
#155 = MANIFOLD_SOLID_BREP ( 'Pøidat vysunutím3', #101 ) ;
#156 = ORIENTED_EDGE ( 'NONE', *, *, #22, .F. ) ;
#157 = ORIENTED_EDGE ( 'NONE', *, *, #219, .F. ) ;
#158 = APPROVAL_DATE_TIME ( #42, #199 ) ;
#159 = CC_DESIGN_DATE_AND_TIME_ASSIGNMENT ( #27, #185, ( #88 ) ) ;
#160 = CARTESIAN_POINT ( 'NONE',  ( -3.000000000000000444, 0.000000000000000000, 0.000000000000000000 ) ) ;
#161 = PERSON_AND_ORGANIZATION ( #246, #240 ) ;
#162 = AXIS2_PLACEMENT_3D ( 'NONE', #92, #253, #122 ) ;
#163 = APPROVAL_PERSON_ORGANIZATION ( #247, #129, #211 ) ;
#164 = PRODUCT ( '13f4', '13f4', '', ( #66 ) ) ;
#165 = AXIS2_PLACEMENT_3D ( 'NONE', #220, #39, #28 ) ;
#166 = SECURITY_CLASSIFICATION_LEVEL ( 'unclassified' ) ;
#167 = FACE_OUTER_BOUND ( 'NONE', #81, .T. ) ;
#168 = CALENDAR_DATE ( 2022, 7, 7 ) ;
#169 = LOCAL_TIME ( 19, 55, 5.000000000000000000, #116 ) ;
#170 = CARTESIAN_POINT ( 'NONE',  ( 0.000000000000000000, 0.000000000000000000, 3.000000000000000000 ) ) ;
#171 = PLANE ( 'NONE',  #19 ) ;
#172 = CIRCLE ( 'NONE', #70, 3.000000000000000444 ) ;
#173 = DIRECTION ( 'NONE',  ( 1.000000000000000000, 0.000000000000000000, -0.000000000000000000 ) ) ;
#174 = CARTESIAN_POINT ( 'NONE',  ( 0.000000000000000000, 0.000000000000000000, 3.000000000000000000 ) ) ;
#175 = ADVANCED_FACE ( 'NONE', ( #252 ), #6, .T. ) ;
#176 = DIRECTION ( 'NONE',  ( -0.000000000000000000, -0.000000000000000000, -1.000000000000000000 ) ) ;
#177 = VERTEX_POINT ( 'NONE', #73 ) ;
#178 = VERTEX_POINT ( 'NONE', #248 ) ;
#179 = DIRECTION ( 'NONE',  ( 1.000000000000000000, 0.000000000000000000, 0.000000000000000000 ) ) ;
#180 = AXIS2_PLACEMENT_3D ( 'NONE', #44, #37, #139 ) ;
#181 = PERSON_AND_ORGANIZATION ( #246, #240 ) ;
#182 = APPLICATION_CONTEXT ( 'configuration controlled 3d designs of mechanical parts and assemblies' ) ;
#183 =( NAMED_UNIT ( * ) PLANE_ANGLE_UNIT ( ) SI_UNIT ( $, .RADIAN. ) );
#184 = DESIGN_CONTEXT ( 'detailed design', #194, 'design' ) ;
#185 = DATE_TIME_ROLE ( 'classification_date' ) ;
#186 = DIRECTION ( 'NONE',  ( -0.000000000000000000, -0.000000000000000000, -1.000000000000000000 ) ) ;
#187 = CC_DESIGN_PERSON_AND_ORGANIZATION_ASSIGNMENT ( #251, #206, ( #212 ) ) ;
#188 = PERSON_AND_ORGANIZATION_ROLE ( 'classification_officer' ) ;
#189 = DIRECTION ( 'NONE',  ( 0.000000000000000000, 0.000000000000000000, 1.000000000000000000 ) ) ;
#190 = CARTESIAN_POINT ( 'NONE',  ( -1.600000000000000089, 0.000000000000000000, 203.0000000000000000 ) ) ;
#191 = CARTESIAN_POINT ( 'NONE',  ( -3.000000000000000444, 0.000000000000000000, 3.000000000000000000 ) ) ;
#192 = CIRCLE ( 'NONE', #83, 3.000000000000000444 ) ;
#193 = ORIENTED_EDGE ( 'NONE', *, *, #90, .F. ) ;
#194 = APPLICATION_CONTEXT ( 'configuration controlled 3d designs of mechanical parts and assemblies' ) ;
#195 = ORIENTED_EDGE ( 'NONE', *, *, #22, .T. ) ;
#196 = AXIS2_PLACEMENT_3D ( 'NONE', #131, #127, #10 ) ;
#197 = DIRECTION ( 'NONE',  ( 1.000000000000000000, 0.000000000000000000, 0.000000000000000000 ) ) ;
#198 = APPROVAL_ROLE ( '' ) ;
#199 = APPROVAL ( #221, 'NEURÈENÝ' ) ;
#200 =( LENGTH_UNIT ( ) NAMED_UNIT ( * ) SI_UNIT ( .MILLI., .METRE. ) );
#201 = CALENDAR_DATE ( 2022, 7, 7 ) ;
#202 = CC_DESIGN_APPROVAL ( #223, ( #212 ) ) ;
#203 = EDGE_CURVE ( 'NONE', #255, #110, #224, .T. ) ;
#204 =( NAMED_UNIT ( * ) SI_UNIT ( $, .STERADIAN. ) SOLID_ANGLE_UNIT ( ) );
#205 = AXIS2_PLACEMENT_3D ( 'NONE', #227, #26, #104 ) ;
#206 = PERSON_AND_ORGANIZATION_ROLE ( 'design_supplier' ) ;
#207 = CC_DESIGN_DATE_AND_TIME_ASSIGNMENT ( #244, #40, ( #229 ) ) ;
#208 = CARTESIAN_POINT ( 'NONE',  ( 1.600000000000000089, 1.959434878635765230E-16, 3.000000000000000000 ) ) ;
#209 = LINE ( 'NONE', #71, #14 ) ;
#210 = DIRECTION ( 'NONE',  ( 1.000000000000000000, 0.000000000000000000, 0.000000000000000000 ) ) ;
#211 = APPROVAL_ROLE ( '' ) ;
#212 = PRODUCT_DEFINITION_FORMATION_WITH_SPECIFIED_SOURCE ( 'LIBOVOLNÝ', '', #164, .NOT_KNOWN. ) ;
#213 = DIRECTION ( 'NONE',  ( -1.000000000000000000, 0.000000000000000000, 0.000000000000000000 ) ) ;
#214 = ORIENTED_EDGE ( 'NONE', *, *, #5, .T. ) ;
#215 = ORIENTED_EDGE ( 'NONE', *, *, #120, .T. ) ;
#216 = EDGE_LOOP ( 'NONE', ( #157, #93 ) ) ;
#217 = ORIENTED_EDGE ( 'NONE', *, *, #41, .F. ) ;
#218 = DIRECTION ( 'NONE',  ( 0.000000000000000000, 0.000000000000000000, 1.000000000000000000 ) ) ;
#219 = EDGE_CURVE ( 'NONE', #177, #35, #31, .T. ) ;
#220 = CARTESIAN_POINT ( 'NONE',  ( 0.000000000000000000, 0.000000000000000000, 3.000000000000000000 ) ) ;
#221 = APPROVAL_STATUS ( 'not_yet_approved' ) ;
#222 = PERSON_AND_ORGANIZATION ( #246, #240 ) ;
#223 = APPROVAL ( #99, 'NEURÈENÝ' ) ;
#224 = CIRCLE ( 'NONE', #146, 3.000000000000000444 ) ;
#225 = CARTESIAN_POINT ( 'NONE',  ( 0.000000000000000000, 0.000000000000000000, 3.000000000000000000 ) ) ;
#226 = CARTESIAN_POINT ( 'NONE',  ( 0.000000000000000000, 0.000000000000000000, 203.0000000000000000 ) ) ;
#227 = CARTESIAN_POINT ( 'NONE',  ( 0.000000000000000000, 0.000000000000000000, 3.000000000000000000 ) ) ;
#228 = DIRECTION ( 'NONE',  ( -0.000000000000000000, -0.000000000000000000, -1.000000000000000000 ) ) ;
#229 = PRODUCT_DEFINITION ( 'NEZNÁMÝ', '', #212, #184 ) ;
#230 = FACE_BOUND ( 'NONE', #216, .T. ) ;
#231 = EDGE_CURVE ( 'NONE', #63, #177, #98, .T. ) ;
#232 = UNCERTAINTY_MEASURE_WITH_UNIT (LENGTH_MEASURE( 1.000000000000000082E-05 ), #200, 'distance_accuracy_value', 'NONE');
#233 = ORIENTED_EDGE ( 'NONE', *, *, #125, .T. ) ;
#234 = ORIENTED_EDGE ( 'NONE', *, *, #203, .F. ) ;
#235 = ORIENTED_EDGE ( 'NONE', *, *, #90, .T. ) ;
#236 = ORIENTED_EDGE ( 'NONE', *, *, #55, .T. ) ;
#237 = AXIS2_PLACEMENT_3D ( 'NONE', #151, #51, #210 ) ;
#238 = CALENDAR_DATE ( 2022, 7, 7 ) ;
#239 = APPLICATION_PROTOCOL_DEFINITION ( 'international standard', 'config_control_design', 1994, #182 ) ;
#240 = ORGANIZATION ( 'NEURÈENÝ', 'NEURÈENÝ', '' ) ;
#241 = CARTESIAN_POINT ( 'NONE',  ( 0.000000000000000000, 0.000000000000000000, 0.000000000000000000 ) ) ;
#242 = CIRCLE ( 'NONE', #145, 3.000000000000000444 ) ;
#243 = PRODUCT_RELATED_PRODUCT_CATEGORY ( 'detail', '', ( #164 ) ) ;
#244 = DATE_AND_TIME ( #238, #45 ) ;
#245 = AXIS2_PLACEMENT_3D ( 'NONE', #72, #106, #11 ) ;
#246 = PERSON ( 'NEURÈENÝ', 'NEURÈENÝ', 'NEURÈENÝ', ('NEURÈENÝ'), ('NEURÈENÝ'), ('NEURÈENÝ') ) ;
#247 = PERSON_AND_ORGANIZATION ( #246, #240 ) ;
#248 = CARTESIAN_POINT ( 'NONE',  ( 3.000000000000000444, 3.673940397442060361E-16, 3.000000000000000000 ) ) ;
#249 = PERSON_AND_ORGANIZATION_ROLE ( 'creator' ) ;
#250 = FACE_OUTER_BOUND ( 'NONE', #108, .T. ) ;
#251 = PERSON_AND_ORGANIZATION ( #246, #240 ) ;
#252 = FACE_OUTER_BOUND ( 'NONE', #153, .T. ) ;
#253 = DIRECTION ( 'NONE',  ( -0.000000000000000000, -0.000000000000000000, -1.000000000000000000 ) ) ;
#254 = ORIENTED_EDGE ( 'NONE', *, *, #41, .T. ) ;
#255 = VERTEX_POINT ( 'NONE', #160 ) ;
ENDSEC;
END-ISO-10303-21;
