ISO-10303-21;
HEADER;
FILE_DESCRIPTION (( 'STEP AP203' ),
    '1' );
FILE_NAME ('3771.STEP',
    '2022-07-07T17:47:21',
    ( '' ),
    ( '' ),
    'SwSTEP 2.0',
    'SolidWorks 2019',
    '' );
FILE_SCHEMA (( 'CONFIG_CONTROL_DESIGN' ));
ENDSEC;

DATA;
#1 = EDGE_LOOP ( 'NONE', ( #202, #141, #102, #86 ) ) ;
#2 = CLOSED_SHELL ( 'NONE', ( #219, #180, #142, #234, #116, #123, #237 ) ) ;
#3 = LINE ( 'NONE', #222, #9 ) ;
#4 = AXIS2_PLACEMENT_3D ( 'NONE', #183, #110, #127 ) ;
#5 = FACE_OUTER_BOUND ( 'NONE', #136, .T. ) ;
#6 = ORIENTED_EDGE ( 'NONE', *, *, #224, .F. ) ;
#7 = VERTEX_POINT ( 'NONE', #138 ) ;
#8 = VERTEX_POINT ( 'NONE', #220 ) ;
#9 = VECTOR ( 'NONE', #158, 1000.000000000000000 ) ;
#10 = APPROVAL ( #168, 'NEURÈENÝ' ) ;
#11 = DIRECTION ( 'NONE',  ( 1.000000000000000000, 0.000000000000000000, -0.000000000000000000 ) ) ;
#12 = CC_DESIGN_PERSON_AND_ORGANIZATION_ASSIGNMENT ( #111, #231, ( #145 ) ) ;
#13 = CARTESIAN_POINT ( 'NONE',  ( 0.000000000000000000, 0.000000000000000000, 3.000000000000000000 ) ) ;
#14 = CIRCLE ( 'NONE', #81, 2.500000000000000000 ) ;
#15 = DIRECTION ( 'NONE',  ( -0.000000000000000000, -0.000000000000000000, -1.000000000000000000 ) ) ;
#16 = DIRECTION ( 'NONE',  ( -1.000000000000000000, 0.000000000000000000, 0.000000000000000000 ) ) ;
#17 = PERSON_AND_ORGANIZATION ( #153, #79 ) ;
#18 = FACE_OUTER_BOUND ( 'NONE', #1, .T. ) ;
#19 = PERSON_AND_ORGANIZATION ( #153, #79 ) ;
#20 = CARTESIAN_POINT ( 'NONE',  ( 0.000000000000000000, 0.000000000000000000, 0.000000000000000000 ) ) ;
#21 = CARTESIAN_POINT ( 'NONE',  ( 5.000000000000000000, 6.123233995736766282E-16, 3.000000000000000000 ) ) ;
#22 = CIRCLE ( 'NONE', #48, 2.500000000000000000 ) ;
#23 = ORIENTED_EDGE ( 'NONE', *, *, #80, .F. ) ;
#24 = CARTESIAN_POINT ( 'NONE',  ( -2.500000000000000000, 0.000000000000000000, 163.0000000000000000 ) ) ;
#25 = PLANE ( 'NONE',  #165 ) ;
#26 = EDGE_CURVE ( 'NONE', #8, #117, #240, .T. ) ;
#27 = DIRECTION ( 'NONE',  ( -0.000000000000000000, -0.000000000000000000, -1.000000000000000000 ) ) ;
#28 = PERSON_AND_ORGANIZATION_ROLE ( 'design_owner' ) ;
#29 = DIRECTION ( 'NONE',  ( 0.000000000000000000, 0.000000000000000000, 1.000000000000000000 ) ) ;
#30 = CARTESIAN_POINT ( 'NONE',  ( 0.000000000000000000, 0.000000000000000000, 0.000000000000000000 ) ) ;
#31 = APPROVAL_PERSON_ORGANIZATION ( #36, #95, #151 ) ;
#32 = PLANE ( 'NONE',  #119 ) ;
#33 = DATE_TIME_ROLE ( 'creation_date' ) ;
#34 = CARTESIAN_POINT ( 'NONE',  ( 2.500000000000000000, 3.061616997868383141E-16, 163.0000000000000000 ) ) ;
#35 = CC_DESIGN_PERSON_AND_ORGANIZATION_ASSIGNMENT ( #152, #28, ( #67 ) ) ;
#36 = PERSON_AND_ORGANIZATION ( #153, #79 ) ;
#37 = CALENDAR_DATE ( 2022, 7, 7 ) ;
#38 = CC_DESIGN_PERSON_AND_ORGANIZATION_ASSIGNMENT ( #17, #60, ( #182 ) ) ;
#39 = EDGE_LOOP ( 'NONE', ( #218, #40 ) ) ;
#40 = ORIENTED_EDGE ( 'NONE', *, *, #224, .T. ) ;
#41 = CC_DESIGN_DATE_AND_TIME_ASSIGNMENT ( #195, #131, ( #182 ) ) ;
#42 = ORIENTED_EDGE ( 'NONE', *, *, #83, .F. ) ;
#43 = AXIS2_PLACEMENT_3D ( 'NONE', #20, #94, #159 ) ;
#44 = VERTEX_POINT ( 'NONE', #236 ) ;
#45 = EDGE_CURVE ( 'NONE', #204, #7, #70, .T. ) ;
#46 = CARTESIAN_POINT ( 'NONE',  ( 0.000000000000000000, 0.000000000000000000, 3.000000000000000000 ) ) ;
#47 = DESIGN_CONTEXT ( 'detailed design', #114, 'design' ) ;
#48 = AXIS2_PLACEMENT_3D ( 'NONE', #53, #29, #185 ) ;
#49 = DIRECTION ( 'NONE',  ( 1.000000000000000000, 0.000000000000000000, -0.000000000000000000 ) ) ;
#50 = EDGE_CURVE ( 'NONE', #117, #44, #160, .T. ) ;
#51 = CARTESIAN_POINT ( 'NONE',  ( -5.000000000000000000, 0.000000000000000000, 0.000000000000000000 ) ) ;
#52 = APPLICATION_PROTOCOL_DEFINITION ( 'international standard', 'config_control_design', 1994, #114 ) ;
#53 = CARTESIAN_POINT ( 'NONE',  ( 0.000000000000000000, 0.000000000000000000, 3.000000000000000000 ) ) ;
#54 = COORDINATED_UNIVERSAL_TIME_OFFSET ( 1, 0, .AHEAD. ) ;
#55 = PERSON_AND_ORGANIZATION_ROLE ( 'creator' ) ;
#56 = EDGE_CURVE ( 'NONE', #156, #44, #61, .T. ) ;
#57 = FACE_BOUND ( 'NONE', #238, .T. ) ;
#58 = APPLICATION_PROTOCOL_DEFINITION ( 'international standard', 'config_control_design', 1994, #198 ) ;
#59 = MANIFOLD_SOLID_BREP ( 'Pøidat vysunutím3', #2 ) ;
#60 = PERSON_AND_ORGANIZATION_ROLE ( 'classification_officer' ) ;
#62 = EDGE_CURVE ( 'NONE', #44, #156, #132, .T. ) ;
#61 = CIRCLE ( 'NONE', #43, 5.000000000000000000 ) ;
#63 = LOCAL_TIME ( 19, 47, 21.00000000000000000, #248 ) ;
#64 = ORIENTED_EDGE ( 'NONE', *, *, #45, .T. ) ;
#65 = DIRECTION ( 'NONE',  ( 0.000000000000000000, 0.000000000000000000, 1.000000000000000000 ) ) ;
#66 = EDGE_LOOP ( 'NONE', ( #179, #199 ) ) ;
#67 = PRODUCT ( '3771', '3771', '', ( #169 ) ) ;
#68 = VERTEX_POINT ( 'NONE', #24 ) ;
#69 = APPROVAL_PERSON_ORGANIZATION ( #214, #10, #228 ) ;
#70 = LINE ( 'NONE', #82, #78 ) ;
#71 = CYLINDRICAL_SURFACE ( 'NONE', #243, 2.500000000000000000 ) ;
#72 = AXIS2_PLACEMENT_3D ( 'NONE', #225, #247, #49 ) ;
#73 = FACE_OUTER_BOUND ( 'NONE', #39, .T. ) ;
#74 = APPROVAL_DATE_TIME ( #250, #133 ) ;
#75 = FACE_OUTER_BOUND ( 'NONE', #177, .T. ) ;
#76 = DATE_AND_TIME ( #126, #63 ) ;
#77 = LINE ( 'NONE', #129, #252 ) ;
#78 = VECTOR ( 'NONE', #181, 1000.000000000000000 ) ;
#79 = ORGANIZATION ( 'NEURÈENÝ', 'NEURÈENÝ', '' ) ;
#80 = EDGE_CURVE ( 'NONE', #8, #156, #3, .T. ) ;
#81 = AXIS2_PLACEMENT_3D ( 'NONE', #230, #192, #212 ) ;
#82 = CARTESIAN_POINT ( 'NONE',  ( 2.500000000000000000, 3.061616997868383141E-16, 163.0000000000000000 ) ) ;
#83 = EDGE_CURVE ( 'NONE', #143, #7, #196, .T. ) ;
#84 = DIRECTION ( 'NONE',  ( 0.000000000000000000, 0.000000000000000000, 1.000000000000000000 ) ) ;
#85 = ORIENTED_EDGE ( 'NONE', *, *, #45, .F. ) ;
#86 = ORIENTED_EDGE ( 'NONE', *, *, #56, .T. ) ;
#87 = ORIENTED_EDGE ( 'NONE', *, *, #176, .T. ) ;
#88 = DIRECTION ( 'NONE',  ( -1.000000000000000000, 0.000000000000000000, 0.000000000000000000 ) ) ;
#89 = CYLINDRICAL_SURFACE ( 'NONE', #155, 5.000000000000000000 ) ;
#90 = CC_DESIGN_PERSON_AND_ORGANIZATION_ASSIGNMENT ( #166, #55, ( #146 ) ) ;
#91 = DIRECTION ( 'NONE',  ( -0.000000000000000000, -0.000000000000000000, -1.000000000000000000 ) ) ;
#92 = COORDINATED_UNIVERSAL_TIME_OFFSET ( 1, 0, .AHEAD. ) ;
#93 = DIRECTION ( 'NONE',  ( 0.000000000000000000, 0.000000000000000000, 1.000000000000000000 ) ) ;
#94 = DIRECTION ( 'NONE',  ( 0.000000000000000000, 0.000000000000000000, 1.000000000000000000 ) ) ;
#95 = APPROVAL ( #107, 'NEURÈENÝ' ) ;
#96 = ORIENTED_EDGE ( 'NONE', *, *, #56, .F. ) ;
#97 = CIRCLE ( 'NONE', #4, 5.000000000000000000 ) ;
#98 = ORIENTED_EDGE ( 'NONE', *, *, #176, .F. ) ;
#99 = ORIENTED_EDGE ( 'NONE', *, *, #62, .F. ) ;
#100 = LOCAL_TIME ( 19, 47, 21.00000000000000000, #54 ) ;
#101 = CARTESIAN_POINT ( 'NONE',  ( 0.000000000000000000, 0.000000000000000000, 3.000000000000000000 ) ) ;
#102 = ORIENTED_EDGE ( 'NONE', *, *, #80, .T. ) ;
#103 = CARTESIAN_POINT ( 'NONE',  ( 0.000000000000000000, 0.000000000000000000, 3.000000000000000000 ) ) ;
#104 = CALENDAR_DATE ( 2022, 7, 7 ) ;
#105 = CC_DESIGN_DATE_AND_TIME_ASSIGNMENT ( #246, #33, ( #146 ) ) ;
#106 = CARTESIAN_POINT ( 'NONE',  ( 0.000000000000000000, 0.000000000000000000, 163.0000000000000000 ) ) ;
#107 = APPROVAL_STATUS ( 'not_yet_approved' ) ;
#108 =( GEOMETRIC_REPRESENTATION_CONTEXT ( 3 ) GLOBAL_UNCERTAINTY_ASSIGNED_CONTEXT ( ( #191 ) ) GLOBAL_UNIT_ASSIGNED_CONTEXT ( ( #163, #213, #148 ) ) REPRESENTATION_CONTEXT ( 'NONE', 'WORKASPACE' ) );
#109 = CARTESIAN_POINT ( 'NONE',  ( 0.000000000000000000, 0.000000000000000000, 163.0000000000000000 ) ) ;
#110 = DIRECTION ( 'NONE',  ( 0.000000000000000000, 0.000000000000000000, 1.000000000000000000 ) ) ;
#111 = PERSON_AND_ORGANIZATION ( #153, #79 ) ;
#112 = CC_DESIGN_APPROVAL ( #10, ( #182 ) ) ;
#113 = ORIENTED_EDGE ( 'NONE', *, *, #197, .T. ) ;
#114 = APPLICATION_CONTEXT ( 'configuration controlled 3d designs of mechanical parts and assemblies' ) ;
#115 = DIRECTION ( 'NONE',  ( -0.000000000000000000, -0.000000000000000000, -1.000000000000000000 ) ) ;
#116 = ADVANCED_FACE ( 'NONE', ( #5 ), #120, .F. ) ;
#117 = VERTEX_POINT ( 'NONE', #249 ) ;
#118 = DIRECTION ( 'NONE',  ( 1.000000000000000000, 0.000000000000000000, 0.000000000000000000 ) ) ;
#119 = AXIS2_PLACEMENT_3D ( 'NONE', #13, #164, #244 ) ;
#120 = PLANE ( 'NONE',  #72 ) ;
#121 = CYLINDRICAL_SURFACE ( 'NONE', #186, 5.000000000000000000 ) ;
#122 = COORDINATED_UNIVERSAL_TIME_OFFSET ( 1, 0, .AHEAD. ) ;
#123 = ADVANCED_FACE ( 'NONE', ( #226 ), #71, .T. ) ;
#124 = DIRECTION ( 'NONE',  ( -1.000000000000000000, 0.000000000000000000, 0.000000000000000000 ) ) ;
#125 = SHAPE_DEFINITION_REPRESENTATION ( #223, #215 ) ;
#126 = CALENDAR_DATE ( 2022, 7, 7 ) ;
#127 = DIRECTION ( 'NONE',  ( 1.000000000000000000, 0.000000000000000000, 0.000000000000000000 ) ) ;
#128 = CALENDAR_DATE ( 2022, 7, 7 ) ;
#129 = CARTESIAN_POINT ( 'NONE',  ( -2.500000000000000000, 0.000000000000000000, 163.0000000000000000 ) ) ;
#130 = CALENDAR_DATE ( 2022, 7, 7 ) ;
#131 = DATE_TIME_ROLE ( 'classification_date' ) ;
#132 = CIRCLE ( 'NONE', #251, 5.000000000000000000 ) ;
#133 = APPROVAL ( #208, 'NEURÈENÝ' ) ;
#134 = AXIS2_PLACEMENT_3D ( 'NONE', #46, #65, #137 ) ;
#135 = ORIENTED_EDGE ( 'NONE', *, *, #83, .T. ) ;
#136 = EDGE_LOOP ( 'NONE', ( #96, #99 ) ) ;
#137 = DIRECTION ( 'NONE',  ( 1.000000000000000000, 0.000000000000000000, 0.000000000000000000 ) ) ;
#138 = CARTESIAN_POINT ( 'NONE',  ( 2.500000000000000000, 3.061616997868383141E-16, 3.000000000000000000 ) ) ;
#139 = DIRECTION ( 'NONE',  ( 1.000000000000000000, 0.000000000000000000, 0.000000000000000000 ) ) ;
#140 = AXIS2_PLACEMENT_3D ( 'NONE', #30, #93, #172 ) ;
#141 = ORIENTED_EDGE ( 'NONE', *, *, #26, .F. ) ;
#142 = ADVANCED_FACE ( 'NONE', ( #18 ), #121, .T. ) ;
#143 = VERTEX_POINT ( 'NONE', #206 ) ;
#144 = CARTESIAN_POINT ( 'NONE',  ( 0.000000000000000000, 0.000000000000000000, 163.0000000000000000 ) ) ;
#145 = PRODUCT_DEFINITION_FORMATION_WITH_SPECIFIED_SOURCE ( 'LIBOVOLNÝ', '', #67, .NOT_KNOWN. ) ;
#146 = PRODUCT_DEFINITION ( 'NEZNÁMÝ', '', #145, #47 ) ;
#147 = FACE_OUTER_BOUND ( 'NONE', #162, .T. ) ;
#148 =( NAMED_UNIT ( * ) SI_UNIT ( $, .STERADIAN. ) SOLID_ANGLE_UNIT ( ) );
#149 = DIRECTION ( 'NONE',  ( -0.000000000000000000, -0.000000000000000000, -1.000000000000000000 ) ) ;
#150 = DIRECTION ( 'NONE',  ( 0.000000000000000000, 0.000000000000000000, 1.000000000000000000 ) ) ;
#151 = APPROVAL_ROLE ( '' ) ;
#152 = PERSON_AND_ORGANIZATION ( #153, #79 ) ;
#153 = PERSON ( 'NEURÈENÝ', 'NEURÈENÝ', 'NEURÈENÝ', ('NEURÈENÝ'), ('NEURÈENÝ'), ('NEURÈENÝ') ) ;
#154 = VECTOR ( 'NONE', #115, 1000.000000000000000 ) ;
#155 = AXIS2_PLACEMENT_3D ( 'NONE', #103, #91, #88 ) ;
#156 = VERTEX_POINT ( 'NONE', #51 ) ;
#157 = AXIS2_PLACEMENT_3D ( 'NONE', #203, #84, #118 ) ;
#158 = DIRECTION ( 'NONE',  ( -0.000000000000000000, -0.000000000000000000, -1.000000000000000000 ) ) ;
#159 = DIRECTION ( 'NONE',  ( 1.000000000000000000, 0.000000000000000000, 0.000000000000000000 ) ) ;
#160 = LINE ( 'NONE', #21, #154 ) ;
#161 = EDGE_CURVE ( 'NONE', #68, #204, #14, .T. ) ;
#162 = EDGE_LOOP ( 'NONE', ( #6, #64, #113, #98 ) ) ;
#163 =( LENGTH_UNIT ( ) NAMED_UNIT ( * ) SI_UNIT ( .MILLI., .METRE. ) );
#164 = DIRECTION ( 'NONE',  ( 0.000000000000000000, 0.000000000000000000, 1.000000000000000000 ) ) ;
#165 = AXIS2_PLACEMENT_3D ( 'NONE', #109, #150, #11 ) ;
#166 = PERSON_AND_ORGANIZATION ( #153, #79 ) ;
#167 = DIRECTION ( 'NONE',  ( -1.000000000000000000, 0.000000000000000000, 0.000000000000000000 ) ) ;
#168 = APPROVAL_STATUS ( 'not_yet_approved' ) ;
#169 = MECHANICAL_CONTEXT ( 'NONE', #198, 'mechanical' ) ;
#170 = DIRECTION ( 'NONE',  ( 1.000000000000000000, 0.000000000000000000, 0.000000000000000000 ) ) ;
#171 = SECURITY_CLASSIFICATION_LEVEL ( 'unclassified' ) ;
#172 = DIRECTION ( 'NONE',  ( 1.000000000000000000, 0.000000000000000000, 0.000000000000000000 ) ) ;
#173 = CC_DESIGN_APPROVAL ( #95, ( #146 ) ) ;
#174 = CC_DESIGN_PERSON_AND_ORGANIZATION_ASSIGNMENT ( #211, #193, ( #145 ) ) ;
#175 = APPROVAL_PERSON_ORGANIZATION ( #19, #133, #190 ) ;
#176 = EDGE_CURVE ( 'NONE', #68, #143, #77, .T. ) ;
#177 = EDGE_LOOP ( 'NONE', ( #217, #242, #205, #23 ) ) ;
#178 = CARTESIAN_POINT ( 'NONE',  ( 0.000000000000000000, 0.000000000000000000, 0.000000000000000000 ) ) ;
#179 = ORIENTED_EDGE ( 'NONE', *, *, #26, .T. ) ;
#180 = ADVANCED_FACE ( 'NONE', ( #75 ), #89, .T. ) ;
#181 = DIRECTION ( 'NONE',  ( -0.000000000000000000, -0.000000000000000000, -1.000000000000000000 ) ) ;
#182 = SECURITY_CLASSIFICATION ( '', '', #171 ) ;
#183 = CARTESIAN_POINT ( 'NONE',  ( 0.000000000000000000, 0.000000000000000000, 3.000000000000000000 ) ) ;
#184 = EDGE_LOOP ( 'NONE', ( #85, #235, #87, #135 ) ) ;
#185 = DIRECTION ( 'NONE',  ( 1.000000000000000000, 0.000000000000000000, 0.000000000000000000 ) ) ;
#186 = AXIS2_PLACEMENT_3D ( 'NONE', #101, #15, #124 ) ;
#187 = DIRECTION ( 'NONE',  ( -0.000000000000000000, -0.000000000000000000, -1.000000000000000000 ) ) ;
#188 = AXIS2_PLACEMENT_3D ( 'NONE', #144, #227, #170 ) ;
#189 = DATE_AND_TIME ( #37, #100 ) ;
#190 = APPROVAL_ROLE ( '' ) ;
#191 = UNCERTAINTY_MEASURE_WITH_UNIT (LENGTH_MEASURE( 1.000000000000000082E-05 ), #163, 'distance_accuracy_value', 'NONE');
#192 = DIRECTION ( 'NONE',  ( 0.000000000000000000, 0.000000000000000000, 1.000000000000000000 ) ) ;
#193 = PERSON_AND_ORGANIZATION_ROLE ( 'design_supplier' ) ;
#194 = CARTESIAN_POINT ( 'NONE',  ( 0.000000000000000000, 0.000000000000000000, 163.0000000000000000 ) ) ;
#195 = DATE_AND_TIME ( #130, #201 ) ;
#196 = CIRCLE ( 'NONE', #134, 2.500000000000000000 ) ;
#197 = EDGE_CURVE ( 'NONE', #7, #143, #22, .T. ) ;
#198 = APPLICATION_CONTEXT ( 'configuration controlled 3d designs of mechanical parts and assemblies' ) ;
#199 = ORIENTED_EDGE ( 'NONE', *, *, #232, .T. ) ;
#200 = ORIENTED_EDGE ( 'NONE', *, *, #197, .F. ) ;
#201 = LOCAL_TIME ( 19, 47, 21.00000000000000000, #92 ) ;
#202 = ORIENTED_EDGE ( 'NONE', *, *, #50, .F. ) ;
#203 = CARTESIAN_POINT ( 'NONE',  ( 0.000000000000000000, 0.000000000000000000, 3.000000000000000000 ) ) ;
#204 = VERTEX_POINT ( 'NONE', #34 ) ;
#205 = ORIENTED_EDGE ( 'NONE', *, *, #62, .T. ) ;
#206 = CARTESIAN_POINT ( 'NONE',  ( -2.500000000000000000, 0.000000000000000000, 3.000000000000000000 ) ) ;
#207 = CYLINDRICAL_SURFACE ( 'NONE', #221, 2.500000000000000000 ) ;
#208 = APPROVAL_STATUS ( 'not_yet_approved' ) ;
#209 = FACE_OUTER_BOUND ( 'NONE', #66, .T. ) ;
#210 = CC_DESIGN_SECURITY_CLASSIFICATION ( #182, ( #145 ) ) ;
#211 = PERSON_AND_ORGANIZATION ( #153, #79 ) ;
#212 = DIRECTION ( 'NONE',  ( 1.000000000000000000, 0.000000000000000000, 0.000000000000000000 ) ) ;
#213 =( NAMED_UNIT ( * ) PLANE_ANGLE_UNIT ( ) SI_UNIT ( $, .RADIAN. ) );
#214 = PERSON_AND_ORGANIZATION ( #153, #79 ) ;
#215 = ADVANCED_BREP_SHAPE_REPRESENTATION ( '3771', ( #59, #140 ), #108 ) ;
#216 = CC_DESIGN_APPROVAL ( #133, ( #145 ) ) ;
#217 = ORIENTED_EDGE ( 'NONE', *, *, #232, .F. ) ;
#218 = ORIENTED_EDGE ( 'NONE', *, *, #161, .T. ) ;
#219 = ADVANCED_FACE ( 'NONE', ( #147 ), #207, .T. ) ;
#220 = CARTESIAN_POINT ( 'NONE',  ( -5.000000000000000000, 0.000000000000000000, 3.000000000000000000 ) ) ;
#221 = AXIS2_PLACEMENT_3D ( 'NONE', #194, #149, #167 ) ;
#222 = CARTESIAN_POINT ( 'NONE',  ( -5.000000000000000000, 0.000000000000000000, 3.000000000000000000 ) ) ;
#223 = PRODUCT_DEFINITION_SHAPE ( 'NONE', 'NONE',  #146 ) ;
#224 = EDGE_CURVE ( 'NONE', #204, #68, #233, .T. ) ;
#225 = CARTESIAN_POINT ( 'NONE',  ( 0.000000000000000000, 0.000000000000000000, 0.000000000000000000 ) ) ;
#226 = FACE_OUTER_BOUND ( 'NONE', #184, .T. ) ;
#227 = DIRECTION ( 'NONE',  ( 0.000000000000000000, 0.000000000000000000, 1.000000000000000000 ) ) ;
#228 = APPROVAL_ROLE ( '' ) ;
#229 = APPROVAL_DATE_TIME ( #76, #95 ) ;
#230 = CARTESIAN_POINT ( 'NONE',  ( 0.000000000000000000, 0.000000000000000000, 163.0000000000000000 ) ) ;
#231 = PERSON_AND_ORGANIZATION_ROLE ( 'creator' ) ;
#232 = EDGE_CURVE ( 'NONE', #117, #8, #97, .T. ) ;
#233 = CIRCLE ( 'NONE', #188, 2.500000000000000000 ) ;
#234 = ADVANCED_FACE ( 'NONE', ( #57, #209 ), #32, .T. ) ;
#235 = ORIENTED_EDGE ( 'NONE', *, *, #161, .F. ) ;
#236 = CARTESIAN_POINT ( 'NONE',  ( 5.000000000000000000, 6.123233995736766282E-16, 0.000000000000000000 ) ) ;
#237 = ADVANCED_FACE ( 'NONE', ( #73 ), #25, .T. ) ;
#238 = EDGE_LOOP ( 'NONE', ( #42, #200 ) ) ;
#239 = DIRECTION ( 'NONE',  ( 0.000000000000000000, 0.000000000000000000, 1.000000000000000000 ) ) ;
#240 = CIRCLE ( 'NONE', #157, 5.000000000000000000 ) ;
#241 = LOCAL_TIME ( 19, 47, 21.00000000000000000, #122 ) ;
#242 = ORIENTED_EDGE ( 'NONE', *, *, #50, .T. ) ;
#243 = AXIS2_PLACEMENT_3D ( 'NONE', #106, #187, #16 ) ;
#244 = DIRECTION ( 'NONE',  ( 1.000000000000000000, 0.000000000000000000, -0.000000000000000000 ) ) ;
#245 = PRODUCT_RELATED_PRODUCT_CATEGORY ( 'detail', '', ( #67 ) ) ;
#246 = DATE_AND_TIME ( #104, #241 ) ;
#247 = DIRECTION ( 'NONE',  ( 0.000000000000000000, 0.000000000000000000, 1.000000000000000000 ) ) ;
#248 = COORDINATED_UNIVERSAL_TIME_OFFSET ( 1, 0, .AHEAD. ) ;
#249 = CARTESIAN_POINT ( 'NONE',  ( 5.000000000000000000, 6.123233995736766282E-16, 3.000000000000000000 ) ) ;
#250 = DATE_AND_TIME ( #128, #253 ) ;
#251 = AXIS2_PLACEMENT_3D ( 'NONE', #178, #239, #139 ) ;
#252 = VECTOR ( 'NONE', #27, 1000.000000000000000 ) ;
#253 = LOCAL_TIME ( 19, 47, 21.00000000000000000, #255 ) ;
#254 = APPROVAL_DATE_TIME ( #189, #10 ) ;
#255 = COORDINATED_UNIVERSAL_TIME_OFFSET ( 1, 0, .AHEAD. ) ;
ENDSEC;
END-ISO-10303-21;
