ISO-10303-21;
HEADER;
FILE_DESCRIPTION (( 'STEP AP203' ),
    '1' );
FILE_NAME ('bc45.STEP',
    '2022-07-07T17:26:06',
    ( '' ),
    ( '' ),
    'SwSTEP 2.0',
    'SolidWorks 2019',
    '' );
FILE_SCHEMA (( 'CONFIG_CONTROL_DESIGN' ));
ENDSEC;

DATA;
#1 = ORIENTED_EDGE ( 'NONE', *, *, #199, .T. ) ;
#2 = APPROVAL_ROLE ( '' ) ;
#3 = EDGE_LOOP ( 'NONE', ( #179, #182 ) ) ;
#4 = DIRECTION ( 'NONE',  ( 0.000000000000000000, 0.000000000000000000, 1.000000000000000000 ) ) ;
#5 = ORIENTED_EDGE ( 'NONE', *, *, #31, .F. ) ;
#6 = ORIENTED_EDGE ( 'NONE', *, *, #95, .T. ) ;
#7 = MECHANICAL_CONTEXT ( 'NONE', #206, 'mechanical' ) ;
#8 = EDGE_LOOP ( 'NONE', ( #5, #80, #141, #187 ) ) ;
#9 = CIRCLE ( 'NONE', #110, 8.000000000000000000 ) ;
#10 = COORDINATED_UNIVERSAL_TIME_OFFSET ( 1, 0, .AHEAD. ) ;
#11 = ADVANCED_FACE ( 'NONE', ( #99 ), #28, .T. ) ;
#12 = CC_DESIGN_SECURITY_CLASSIFICATION ( #30, ( #82 ) ) ;
#13 = DIRECTION ( 'NONE',  ( -0.000000000000000000, -0.000000000000000000, -1.000000000000000000 ) ) ;
#14 = LINE ( 'NONE', #174, #183 ) ;
#15 = DIRECTION ( 'NONE',  ( 1.000000000000000000, 0.000000000000000000, -0.000000000000000000 ) ) ;
#16 = APPROVAL_DATE_TIME ( #78, #103 ) ;
#17 = APPLICATION_CONTEXT ( 'configuration controlled 3d designs of mechanical parts and assemblies' ) ;
#18 = DIRECTION ( 'NONE',  ( 1.000000000000000000, 0.000000000000000000, -0.000000000000000000 ) ) ;
#19 = CIRCLE ( 'NONE', #150, 5.099999999999999645 ) ;
#20 = ORIENTED_EDGE ( 'NONE', *, *, #199, .F. ) ;
#21 = CIRCLE ( 'NONE', #169, 5.099999999999999645 ) ;
#22 = VERTEX_POINT ( 'NONE', #44 ) ;
#23 = COORDINATED_UNIVERSAL_TIME_OFFSET ( 1, 0, .AHEAD. ) ;
#24 = PRODUCT ( 'bc45', 'bc45', '', ( #7 ) ) ;
#25 = PERSON_AND_ORGANIZATION ( #93, #121 ) ;
#26 = PLANE ( 'NONE',  #81 ) ;
#27 = ORIENTED_EDGE ( 'NONE', *, *, #171, .F. ) ;
#28 = CYLINDRICAL_SURFACE ( 'NONE', #227, 8.000000000000000000 ) ;
#29 = PERSON_AND_ORGANIZATION ( #93, #121 ) ;
#30 = SECURITY_CLASSIFICATION ( '', '', #202 ) ;
#31 = EDGE_CURVE ( 'NONE', #106, #57, #160, .T. ) ;
#32 = AXIS2_PLACEMENT_3D ( 'NONE', #132, #189, #209 ) ;
#33 = APPROVAL_PERSON_ORGANIZATION ( #204, #64, #243 ) ;
#34 = FACE_OUTER_BOUND ( 'NONE', #3, .T. ) ;
#35 = DIRECTION ( 'NONE',  ( 1.000000000000000000, 0.000000000000000000, 0.000000000000000000 ) ) ;
#36 = FACE_OUTER_BOUND ( 'NONE', #194, .T. ) ;
#37 = CYLINDRICAL_SURFACE ( 'NONE', #32, 5.099999999999999645 ) ;
#38 = CARTESIAN_POINT ( 'NONE',  ( 8.000000000000000000, 9.797174393178825657E-16, 5.000000000000000000 ) ) ;
#39 = DIRECTION ( 'NONE',  ( 1.000000000000000000, 0.000000000000000000, 0.000000000000000000 ) ) ;
#40 = ORIENTED_EDGE ( 'NONE', *, *, #240, .F. ) ;
#41 = CARTESIAN_POINT ( 'NONE',  ( 8.000000000000000000, 9.797174393178825657E-16, 5.000000000000000000 ) ) ;
#42 = EDGE_CURVE ( 'NONE', #57, #180, #54, .T. ) ;
#43 = PERSON_AND_ORGANIZATION_ROLE ( 'design_supplier' ) ;
#44 = CARTESIAN_POINT ( 'NONE',  ( -8.000000000000000000, 0.000000000000000000, 5.000000000000000000 ) ) ;
#45 = PERSON_AND_ORGANIZATION ( #93, #121 ) ;
#46 = AXIS2_PLACEMENT_3D ( 'NONE', #192, #246, #248 ) ;
#47 = ADVANCED_FACE ( 'NONE', ( #125 ), #26, .F. ) ;
#48 = DATE_AND_TIME ( #218, #220 ) ;
#49 = AXIS2_PLACEMENT_3D ( 'NONE', #53, #74, #18 ) ;
#50 = PLANE ( 'NONE',  #102 ) ;
#51 = CARTESIAN_POINT ( 'NONE',  ( -8.000000000000000000, 0.000000000000000000, 0.000000000000000000 ) ) ;
#52 = CC_DESIGN_PERSON_AND_ORGANIZATION_ASSIGNMENT ( #45, #126, ( #82 ) ) ;
#53 = CARTESIAN_POINT ( 'NONE',  ( 0.000000000000000000, 0.000000000000000000, 130.0000000000000000 ) ) ;
#54 = CIRCLE ( 'NONE', #198, 8.000000000000000000 ) ;
#55 = DIRECTION ( 'NONE',  ( 1.000000000000000000, 0.000000000000000000, 0.000000000000000000 ) ) ;
#56 = CARTESIAN_POINT ( 'NONE',  ( 0.000000000000000000, 0.000000000000000000, 130.0000000000000000 ) ) ;
#57 = VERTEX_POINT ( 'NONE', #184 ) ;
#58 = VERTEX_POINT ( 'NONE', #170 ) ;
#59 = APPROVAL_DATE_TIME ( #241, #66 ) ;
#60 = APPROVAL_DATE_TIME ( #65, #64 ) ;
#61 = AXIS2_PLACEMENT_3D ( 'NONE', #172, #233, #55 ) ;
#62 = ORIENTED_EDGE ( 'NONE', *, *, #240, .T. ) ;
#63 = PERSON_AND_ORGANIZATION ( #93, #121 ) ;
#64 = APPROVAL ( #168, 'NEURÈENÝ' ) ;
#65 = DATE_AND_TIME ( #165, #175 ) ;
#66 = APPROVAL ( #185, 'NEURÈENÝ' ) ;
#67 = VECTOR ( 'NONE', #219, 1000.000000000000000 ) ;
#68 = CARTESIAN_POINT ( 'NONE',  ( 0.000000000000000000, 0.000000000000000000, 130.0000000000000000 ) ) ;
#69 = LOCAL_TIME ( 19, 26, 6.000000000000000000, #90 ) ;
#70 = CARTESIAN_POINT ( 'NONE',  ( 0.000000000000000000, 0.000000000000000000, 5.000000000000000000 ) ) ;
#71 = EDGE_CURVE ( 'NONE', #180, #57, #239, .T. ) ;
#72 = CARTESIAN_POINT ( 'NONE',  ( -5.099999999999999645, 0.000000000000000000, 130.0000000000000000 ) ) ;
#73 = CALENDAR_DATE ( 2022, 7, 7 ) ;
#74 = DIRECTION ( 'NONE',  ( 0.000000000000000000, 0.000000000000000000, 1.000000000000000000 ) ) ;
#75 = CIRCLE ( 'NONE', #159, 8.000000000000000000 ) ;
#76 = EDGE_LOOP ( 'NONE', ( #40, #244, #235, #20 ) ) ;
#77 = CC_DESIGN_APPROVAL ( #66, ( #82 ) ) ;
#78 = DATE_AND_TIME ( #73, #128 ) ;
#79 = EDGE_LOOP ( 'NONE', ( #6, #62 ) ) ;
#80 = ORIENTED_EDGE ( 'NONE', *, *, #255, .F. ) ;
#81 = AXIS2_PLACEMENT_3D ( 'NONE', #203, #88, #167 ) ;
#82 = PRODUCT_DEFINITION_FORMATION_WITH_SPECIFIED_SOURCE ( 'LIBOVOLNÝ', '', #24, .NOT_KNOWN. ) ;
#83 = PRODUCT_RELATED_PRODUCT_CATEGORY ( 'detail', '', ( #24 ) ) ;
#84 = ORIENTED_EDGE ( 'NONE', *, *, #166, .F. ) ;
#85 =( NAMED_UNIT ( * ) SI_UNIT ( $, .STERADIAN. ) SOLID_ANGLE_UNIT ( ) );
#86 = CARTESIAN_POINT ( 'NONE',  ( 0.000000000000000000, 0.000000000000000000, 5.000000000000000000 ) ) ;
#87 = PERSON_AND_ORGANIZATION_ROLE ( 'creator' ) ;
#88 = DIRECTION ( 'NONE',  ( 0.000000000000000000, 0.000000000000000000, 1.000000000000000000 ) ) ;
#89 = ORIENTED_EDGE ( 'NONE', *, *, #191, .F. ) ;
#90 = COORDINATED_UNIVERSAL_TIME_OFFSET ( 1, 0, .AHEAD. ) ;
#91 = ORIENTED_EDGE ( 'NONE', *, *, #118, .F. ) ;
#92 = PLANE ( 'NONE',  #49 ) ;
#93 = PERSON ( 'NEURÈENÝ', 'NEURÈENÝ', 'NEURÈENÝ', ('NEURÈENÝ'), ('NEURÈENÝ'), ('NEURÈENÝ') ) ;
#94 = DIRECTION ( 'NONE',  ( 1.000000000000000000, 0.000000000000000000, 0.000000000000000000 ) ) ;
#95 = EDGE_CURVE ( 'NONE', #58, #143, #19, .T. ) ;
#96 = AXIS2_PLACEMENT_3D ( 'NONE', #124, #4, #147 ) ;
#97 = DIRECTION ( 'NONE',  ( -0.000000000000000000, -0.000000000000000000, -1.000000000000000000 ) ) ;
#98 = DIRECTION ( 'NONE',  ( 0.000000000000000000, 0.000000000000000000, 1.000000000000000000 ) ) ;
#99 = FACE_OUTER_BOUND ( 'NONE', #8, .T. ) ;
#100 = COORDINATED_UNIVERSAL_TIME_OFFSET ( 1, 0, .AHEAD. ) ;
#101 = ORIENTED_EDGE ( 'NONE', *, *, #191, .T. ) ;
#102 = AXIS2_PLACEMENT_3D ( 'NONE', #154, #98, #15 ) ;
#103 = APPROVAL ( #214, 'NEURÈENÝ' ) ;
#104 = DIRECTION ( 'NONE',  ( 0.000000000000000000, 0.000000000000000000, 1.000000000000000000 ) ) ;
#105 =( NAMED_UNIT ( * ) PLANE_ANGLE_UNIT ( ) SI_UNIT ( $, .RADIAN. ) );
#106 = VERTEX_POINT ( 'NONE', #38 ) ;
#107 =( LENGTH_UNIT ( ) NAMED_UNIT ( * ) SI_UNIT ( .MILLI., .METRE. ) );
#108 = PRODUCT_DEFINITION_SHAPE ( 'NONE', 'NONE',  #177 ) ;
#109 = EDGE_CURVE ( 'NONE', #22, #180, #14, .T. ) ;
#110 = AXIS2_PLACEMENT_3D ( 'NONE', #135, #211, #193 ) ;
#111 = VECTOR ( 'NONE', #117, 1000.000000000000000 ) ;
#112 = DIRECTION ( 'NONE',  ( 0.000000000000000000, 0.000000000000000000, 1.000000000000000000 ) ) ;
#113 = CC_DESIGN_DATE_AND_TIME_ASSIGNMENT ( #224, #221, ( #177 ) ) ;
#114 = CARTESIAN_POINT ( 'NONE',  ( -5.099999999999999645, 0.000000000000000000, 5.000000000000000000 ) ) ;
#115 = CARTESIAN_POINT ( 'NONE',  ( 0.000000000000000000, 0.000000000000000000, 5.000000000000000000 ) ) ;
#116 = LINE ( 'NONE', #72, #156 ) ;
#117 = DIRECTION ( 'NONE',  ( -0.000000000000000000, -0.000000000000000000, -1.000000000000000000 ) ) ;
#118 = EDGE_CURVE ( 'NONE', #213, #145, #138, .T. ) ;
#119 = ORIENTED_EDGE ( 'NONE', *, *, #71, .F. ) ;
#120 = ORIENTED_EDGE ( 'NONE', *, *, #42, .F. ) ;
#121 = ORGANIZATION ( 'NEURÈENÝ', 'NEURÈENÝ', '' ) ;
#122 = ADVANCED_FACE ( 'NONE', ( #36 ), #133, .T. ) ;
#123 = APPLICATION_PROTOCOL_DEFINITION ( 'international standard', 'config_control_design', 1994, #17 ) ;
#124 = CARTESIAN_POINT ( 'NONE',  ( 0.000000000000000000, 0.000000000000000000, 0.000000000000000000 ) ) ;
#125 = FACE_OUTER_BOUND ( 'NONE', #162, .T. ) ;
#126 = PERSON_AND_ORGANIZATION_ROLE ( 'creator' ) ;
#127 = DIRECTION ( 'NONE',  ( 1.000000000000000000, 0.000000000000000000, 0.000000000000000000 ) ) ;
#128 = LOCAL_TIME ( 19, 26, 6.000000000000000000, #100 ) ;
#129 = CC_DESIGN_PERSON_AND_ORGANIZATION_ASSIGNMENT ( #144, #87, ( #177 ) ) ;
#130 = CLOSED_SHELL ( 'NONE', ( #140, #122, #11, #161, #47, #208, #217 ) ) ;
#131 =( GEOMETRIC_REPRESENTATION_CONTEXT ( 3 ) GLOBAL_UNCERTAINTY_ASSIGNED_CONTEXT ( ( #253 ) ) GLOBAL_UNIT_ASSIGNED_CONTEXT ( ( #107, #105, #85 ) ) REPRESENTATION_CONTEXT ( 'NONE', 'WORKASPACE' ) );
#132 = CARTESIAN_POINT ( 'NONE',  ( 0.000000000000000000, 0.000000000000000000, 130.0000000000000000 ) ) ;
#133 = CYLINDRICAL_SURFACE ( 'NONE', #46, 8.000000000000000000 ) ;
#134 = DIRECTION ( 'NONE',  ( 1.000000000000000000, 0.000000000000000000, 0.000000000000000000 ) ) ;
#135 = CARTESIAN_POINT ( 'NONE',  ( 0.000000000000000000, 0.000000000000000000, 5.000000000000000000 ) ) ;
#136 = DIRECTION ( 'NONE',  ( 0.000000000000000000, 0.000000000000000000, 1.000000000000000000 ) ) ;
#137 = ORIENTED_EDGE ( 'NONE', *, *, #42, .T. ) ;
#138 = CIRCLE ( 'NONE', #173, 5.099999999999999645 ) ;
#139 = PERSON_AND_ORGANIZATION ( #93, #121 ) ;
#140 = ADVANCED_FACE ( 'NONE', ( #153 ), #207, .T. ) ;
#141 = ORIENTED_EDGE ( 'NONE', *, *, #109, .T. ) ;
#142 = PERSON_AND_ORGANIZATION_ROLE ( 'classification_officer' ) ;
#143 = VERTEX_POINT ( 'NONE', #228 ) ;
#144 = PERSON_AND_ORGANIZATION ( #93, #121 ) ;
#145 = VERTEX_POINT ( 'NONE', #114 ) ;
#146 = CC_DESIGN_PERSON_AND_ORGANIZATION_ASSIGNMENT ( #29, #142, ( #30 ) ) ;
#147 = DIRECTION ( 'NONE',  ( 1.000000000000000000, 0.000000000000000000, 0.000000000000000000 ) ) ;
#148 = PERSON_AND_ORGANIZATION ( #93, #121 ) ;
#149 = CC_DESIGN_PERSON_AND_ORGANIZATION_ASSIGNMENT ( #63, #225, ( #24 ) ) ;
#150 = AXIS2_PLACEMENT_3D ( 'NONE', #56, #136, #39 ) ;
#151 = CARTESIAN_POINT ( 'NONE',  ( 0.000000000000000000, 0.000000000000000000, 5.000000000000000000 ) ) ;
#152 = LOCAL_TIME ( 19, 26, 6.000000000000000000, #163 ) ;
#153 = FACE_OUTER_BOUND ( 'NONE', #76, .T. ) ;
#154 = CARTESIAN_POINT ( 'NONE',  ( 0.000000000000000000, 0.000000000000000000, 5.000000000000000000 ) ) ;
#155 = DIRECTION ( 'NONE',  ( -1.000000000000000000, 0.000000000000000000, 0.000000000000000000 ) ) ;
#156 = VECTOR ( 'NONE', #13, 1000.000000000000000 ) ;
#157 = APPROVAL_PERSON_ORGANIZATION ( #139, #103, #250 ) ;
#158 = DIRECTION ( 'NONE',  ( 1.000000000000000000, 0.000000000000000000, 0.000000000000000000 ) ) ;
#159 = AXIS2_PLACEMENT_3D ( 'NONE', #70, #112, #94 ) ;
#160 = LINE ( 'NONE', #41, #67 ) ;
#161 = ADVANCED_FACE ( 'NONE', ( #210, #34 ), #50, .T. ) ;
#162 = EDGE_LOOP ( 'NONE', ( #119, #120 ) ) ;
#163 = COORDINATED_UNIVERSAL_TIME_OFFSET ( 1, 0, .AHEAD. ) ;
#164 = DIRECTION ( 'NONE',  ( -0.000000000000000000, -0.000000000000000000, -1.000000000000000000 ) ) ;
#165 = CALENDAR_DATE ( 2022, 7, 7 ) ;
#166 = EDGE_CURVE ( 'NONE', #106, #22, #75, .T. ) ;
#167 = DIRECTION ( 'NONE',  ( 1.000000000000000000, 0.000000000000000000, -0.000000000000000000 ) ) ;
#168 = APPROVAL_STATUS ( 'not_yet_approved' ) ;
#169 = AXIS2_PLACEMENT_3D ( 'NONE', #115, #178, #35 ) ;
#170 = CARTESIAN_POINT ( 'NONE',  ( -5.099999999999999645, 0.000000000000000000, 130.0000000000000000 ) ) ;
#171 = EDGE_CURVE ( 'NONE', #143, #213, #188, .T. ) ;
#172 = CARTESIAN_POINT ( 'NONE',  ( 0.000000000000000000, 0.000000000000000000, 130.0000000000000000 ) ) ;
#173 = AXIS2_PLACEMENT_3D ( 'NONE', #151, #251, #134 ) ;
#174 = CARTESIAN_POINT ( 'NONE',  ( -8.000000000000000000, 0.000000000000000000, 5.000000000000000000 ) ) ;
#175 = LOCAL_TIME ( 19, 26, 6.000000000000000000, #23 ) ;
#176 = CARTESIAN_POINT ( 'NONE',  ( 5.099999999999999645, 6.245698675651500839E-16, 130.0000000000000000 ) ) ;
#177 = PRODUCT_DEFINITION ( 'NEZNÁMÝ', '', #82, #197 ) ;
#178 = DIRECTION ( 'NONE',  ( 0.000000000000000000, 0.000000000000000000, 1.000000000000000000 ) ) ;
#179 = ORIENTED_EDGE ( 'NONE', *, *, #255, .T. ) ;
#180 = VERTEX_POINT ( 'NONE', #51 ) ;
#181 = CALENDAR_DATE ( 2022, 7, 7 ) ;
#182 = ORIENTED_EDGE ( 'NONE', *, *, #166, .T. ) ;
#183 = VECTOR ( 'NONE', #97, 1000.000000000000000 ) ;
#184 = CARTESIAN_POINT ( 'NONE',  ( 8.000000000000000000, 9.797174393178825657E-16, 0.000000000000000000 ) ) ;
#185 = APPROVAL_STATUS ( 'not_yet_approved' ) ;
#186 = CC_DESIGN_DATE_AND_TIME_ASSIGNMENT ( #48, #212, ( #30 ) ) ;
#187 = ORIENTED_EDGE ( 'NONE', *, *, #71, .T. ) ;
#188 = LINE ( 'NONE', #176, #111 ) ;
#189 = DIRECTION ( 'NONE',  ( -0.000000000000000000, -0.000000000000000000, -1.000000000000000000 ) ) ;
#190 = CARTESIAN_POINT ( 'NONE',  ( 5.099999999999999645, 6.245698675651500839E-16, 5.000000000000000000 ) ) ;
#191 = EDGE_CURVE ( 'NONE', #145, #213, #21, .T. ) ;
#192 = CARTESIAN_POINT ( 'NONE',  ( 0.000000000000000000, 0.000000000000000000, 5.000000000000000000 ) ) ;
#193 = DIRECTION ( 'NONE',  ( 1.000000000000000000, 0.000000000000000000, 0.000000000000000000 ) ) ;
#194 = EDGE_LOOP ( 'NONE', ( #84, #195, #137, #201 ) ) ;
#195 = ORIENTED_EDGE ( 'NONE', *, *, #31, .T. ) ;
#196 = CIRCLE ( 'NONE', #61, 5.099999999999999645 ) ;
#197 = DESIGN_CONTEXT ( 'detailed design', #17, 'design' ) ;
#198 = AXIS2_PLACEMENT_3D ( 'NONE', #238, #104, #127 ) ;
#199 = EDGE_CURVE ( 'NONE', #58, #145, #116, .T. ) ;
#200 = CALENDAR_DATE ( 2022, 7, 7 ) ;
#201 = ORIENTED_EDGE ( 'NONE', *, *, #109, .F. ) ;
#202 = SECURITY_CLASSIFICATION_LEVEL ( 'unclassified' ) ;
#203 = CARTESIAN_POINT ( 'NONE',  ( 0.000000000000000000, 0.000000000000000000, 0.000000000000000000 ) ) ;
#204 = PERSON_AND_ORGANIZATION ( #93, #121 ) ;
#205 = APPLICATION_PROTOCOL_DEFINITION ( 'international standard', 'config_control_design', 1994, #206 ) ;
#206 = APPLICATION_CONTEXT ( 'configuration controlled 3d designs of mechanical parts and assemblies' ) ;
#207 = CYLINDRICAL_SURFACE ( 'NONE', #232, 5.099999999999999645 ) ;
#208 = ADVANCED_FACE ( 'NONE', ( #231 ), #37, .T. ) ;
#209 = DIRECTION ( 'NONE',  ( -1.000000000000000000, 0.000000000000000000, 0.000000000000000000 ) ) ;
#210 = FACE_BOUND ( 'NONE', #254, .T. ) ;
#211 = DIRECTION ( 'NONE',  ( 0.000000000000000000, 0.000000000000000000, 1.000000000000000000 ) ) ;
#212 = DATE_TIME_ROLE ( 'classification_date' ) ;
#213 = VERTEX_POINT ( 'NONE', #190 ) ;
#214 = APPROVAL_STATUS ( 'not_yet_approved' ) ;
#215 = ORIENTED_EDGE ( 'NONE', *, *, #95, .F. ) ;
#216 = APPROVAL_PERSON_ORGANIZATION ( #25, #66, #2 ) ;
#217 = ADVANCED_FACE ( 'NONE', ( #249 ), #92, .T. ) ;
#218 = CALENDAR_DATE ( 2022, 7, 7 ) ;
#219 = DIRECTION ( 'NONE',  ( -0.000000000000000000, -0.000000000000000000, -1.000000000000000000 ) ) ;
#220 = LOCAL_TIME ( 19, 26, 6.000000000000000000, #10 ) ;
#221 = DATE_TIME_ROLE ( 'creation_date' ) ;
#222 = MANIFOLD_SOLID_BREP ( 'Pøidat vysunutím3', #130 ) ;
#223 = EDGE_LOOP ( 'NONE', ( #27, #215, #1, #101 ) ) ;
#224 = DATE_AND_TIME ( #200, #69 ) ;
#225 = PERSON_AND_ORGANIZATION_ROLE ( 'design_owner' ) ;
#226 = CC_DESIGN_APPROVAL ( #103, ( #30 ) ) ;
#227 = AXIS2_PLACEMENT_3D ( 'NONE', #86, #164, #242 ) ;
#228 = CARTESIAN_POINT ( 'NONE',  ( 5.099999999999999645, 6.245698675651500839E-16, 130.0000000000000000 ) ) ;
#229 = ADVANCED_BREP_SHAPE_REPRESENTATION ( 'bc45', ( #222, #96 ), #131 ) ;
#230 = DIRECTION ( 'NONE',  ( -0.000000000000000000, -0.000000000000000000, -1.000000000000000000 ) ) ;
#231 = FACE_OUTER_BOUND ( 'NONE', #223, .T. ) ;
#232 = AXIS2_PLACEMENT_3D ( 'NONE', #68, #230, #155 ) ;
#233 = DIRECTION ( 'NONE',  ( 0.000000000000000000, 0.000000000000000000, 1.000000000000000000 ) ) ;
#234 = CC_DESIGN_APPROVAL ( #64, ( #177 ) ) ;
#235 = ORIENTED_EDGE ( 'NONE', *, *, #118, .T. ) ;
#236 = SHAPE_DEFINITION_REPRESENTATION ( #108, #229 ) ;
#237 = CC_DESIGN_PERSON_AND_ORGANIZATION_ASSIGNMENT ( #148, #43, ( #82 ) ) ;
#238 = CARTESIAN_POINT ( 'NONE',  ( 0.000000000000000000, 0.000000000000000000, 0.000000000000000000 ) ) ;
#239 = CIRCLE ( 'NONE', #247, 8.000000000000000000 ) ;
#240 = EDGE_CURVE ( 'NONE', #143, #58, #196, .T. ) ;
#241 = DATE_AND_TIME ( #181, #152 ) ;
#242 = DIRECTION ( 'NONE',  ( -1.000000000000000000, 0.000000000000000000, 0.000000000000000000 ) ) ;
#243 = APPROVAL_ROLE ( '' ) ;
#244 = ORIENTED_EDGE ( 'NONE', *, *, #171, .T. ) ;
#245 = DIRECTION ( 'NONE',  ( 0.000000000000000000, 0.000000000000000000, 1.000000000000000000 ) ) ;
#246 = DIRECTION ( 'NONE',  ( -0.000000000000000000, -0.000000000000000000, -1.000000000000000000 ) ) ;
#247 = AXIS2_PLACEMENT_3D ( 'NONE', #252, #245, #158 ) ;
#248 = DIRECTION ( 'NONE',  ( -1.000000000000000000, 0.000000000000000000, 0.000000000000000000 ) ) ;
#249 = FACE_OUTER_BOUND ( 'NONE', #79, .T. ) ;
#250 = APPROVAL_ROLE ( '' ) ;
#251 = DIRECTION ( 'NONE',  ( 0.000000000000000000, 0.000000000000000000, 1.000000000000000000 ) ) ;
#252 = CARTESIAN_POINT ( 'NONE',  ( 0.000000000000000000, 0.000000000000000000, 0.000000000000000000 ) ) ;
#253 = UNCERTAINTY_MEASURE_WITH_UNIT (LENGTH_MEASURE( 1.000000000000000082E-05 ), #107, 'distance_accuracy_value', 'NONE');
#254 = EDGE_LOOP ( 'NONE', ( #89, #91 ) ) ;
#255 = EDGE_CURVE ( 'NONE', #22, #106, #9, .T. ) ;
ENDSEC;
END-ISO-10303-21;
