ISO-10303-21;
HEADER;
FILE_DESCRIPTION (( 'STEP AP203' ),
    '1' );
FILE_NAME ('7583.STEP',
    '2022-07-07T17:21:32',
    ( '' ),
    ( '' ),
    'SwSTEP 2.0',
    'SolidWorks 2019',
    '' );
FILE_SCHEMA (( 'CONFIG_CONTROL_DESIGN' ));
ENDSEC;

DATA;
#1 = DESIGN_CONTEXT ( 'detailed design', #80, 'design' ) ;
#2 = DIRECTION ( 'NONE',  ( 0.000000000000000000, 0.000000000000000000, 1.000000000000000000 ) ) ;
#3 = DIRECTION ( 'NONE',  ( 0.000000000000000000, 0.000000000000000000, 1.000000000000000000 ) ) ;
#4 = LINE ( 'NONE', #141, #215 ) ;
#5 = LOCAL_TIME ( 19, 21, 32.00000000000000000, #251 ) ;
#6 = CYLINDRICAL_SURFACE ( 'NONE', #255, 9.000000000000000000 ) ;
#7 = PRODUCT ( '7583', '7583', '', ( #226 ) ) ;
#8 = DATE_TIME_ROLE ( 'classification_date' ) ;
#9 = CARTESIAN_POINT ( 'NONE',  ( 0.000000000000000000, 0.000000000000000000, 7.000000000000000000 ) ) ;
#10 = FACE_OUTER_BOUND ( 'NONE', #26, .T. ) ;
#11 = PRODUCT_RELATED_PRODUCT_CATEGORY ( 'detail', '', ( #7 ) ) ;
#12 = CARTESIAN_POINT ( 'NONE',  ( 0.000000000000000000, 0.000000000000000000, 0.000000000000000000 ) ) ;
#13 = DIRECTION ( 'NONE',  ( -0.000000000000000000, -0.000000000000000000, -1.000000000000000000 ) ) ;
#14 = APPROVAL ( #146, 'NEURÈENÝ' ) ;
#15 = PERSON_AND_ORGANIZATION ( #254, #19 ) ;
#16 = CARTESIAN_POINT ( 'NONE',  ( -9.000000000000000000, 0.000000000000000000, 0.000000000000000000 ) ) ;
#17 = AXIS2_PLACEMENT_3D ( 'NONE', #30, #130, #83 ) ;
#18 = CC_DESIGN_PERSON_AND_ORGANIZATION_ASSIGNMENT ( #245, #191, ( #175 ) ) ;
#19 = ORGANIZATION ( 'NEURÈENÝ', 'NEURÈENÝ', '' ) ;
#20 = CIRCLE ( 'NONE', #193, 9.000000000000000000 ) ;
#21 = EDGE_CURVE ( 'NONE', #185, #140, #195, .T. ) ;
#22 = CC_DESIGN_PERSON_AND_ORGANIZATION_ASSIGNMENT ( #113, #76, ( #7 ) ) ;
#23 = CC_DESIGN_DATE_AND_TIME_ASSIGNMENT ( #182, #232, ( #79 ) ) ;
#24 = EDGE_CURVE ( 'NONE', #185, #38, #4, .T. ) ;
#25 = DIRECTION ( 'NONE',  ( 0.000000000000000000, 0.000000000000000000, 1.000000000000000000 ) ) ;
#26 = EDGE_LOOP ( 'NONE', ( #106, #120, #129, #86 ) ) ;
#27 = CARTESIAN_POINT ( 'NONE',  ( -5.750000000000000000, 0.000000000000000000, 132.0000000000000000 ) ) ;
#28 = CARTESIAN_POINT ( 'NONE',  ( -5.750000000000000000, 0.000000000000000000, 132.0000000000000000 ) ) ;
#29 = LOCAL_TIME ( 19, 21, 32.00000000000000000, #212 ) ;
#30 = CARTESIAN_POINT ( 'NONE',  ( 0.000000000000000000, 0.000000000000000000, 132.0000000000000000 ) ) ;
#31 = APPROVAL ( #54, 'NEURÈENÝ' ) ;
#32 = APPROVAL_ROLE ( '' ) ;
#33 = LINE ( 'NONE', #56, #213 ) ;
#34 = APPROVAL_DATE_TIME ( #112, #31 ) ;
#35 = FACE_OUTER_BOUND ( 'NONE', #202, .T. ) ;
#36 = PERSON_AND_ORGANIZATION ( #254, #19 ) ;
#37 = AXIS2_PLACEMENT_3D ( 'NONE', #142, #243, #43 ) ;
#38 = VERTEX_POINT ( 'NONE', #88 ) ;
#39 = CIRCLE ( 'NONE', #172, 5.750000000000000000 ) ;
#40 = CC_DESIGN_PERSON_AND_ORGANIZATION_ASSIGNMENT ( #147, #248, ( #79 ) ) ;
#41 = CC_DESIGN_APPROVAL ( #14, ( #79 ) ) ;
#42 = EDGE_CURVE ( 'NONE', #140, #185, #61, .T. ) ;
#43 = DIRECTION ( 'NONE',  ( 1.000000000000000000, 0.000000000000000000, 0.000000000000000000 ) ) ;
#44 = CC_DESIGN_APPROVAL ( #31, ( #175 ) ) ;
#45 = ORIENTED_EDGE ( 'NONE', *, *, #72, .T. ) ;
#46 = ORIENTED_EDGE ( 'NONE', *, *, #125, .F. ) ;
#47 = PLANE ( 'NONE',  #17 ) ;
#48 = CLOSED_SHELL ( 'NONE', ( #99, #220, #177, #68, #196, #201, #149 ) ) ;
#49 = APPLICATION_PROTOCOL_DEFINITION ( 'international standard', 'config_control_design', 1994, #80 ) ;
#50 = DIRECTION ( 'NONE',  ( 1.000000000000000000, 0.000000000000000000, 0.000000000000000000 ) ) ;
#51 = CARTESIAN_POINT ( 'NONE',  ( 9.000000000000000000, 1.102182119232617714E-15, 7.000000000000000000 ) ) ;
#52 = AXIS2_PLACEMENT_3D ( 'NONE', #210, #244, #95 ) ;
#53 = ORIENTED_EDGE ( 'NONE', *, *, #190, .T. ) ;
#54 = APPROVAL_STATUS ( 'not_yet_approved' ) ;
#55 = CALENDAR_DATE ( 2022, 7, 7 ) ;
#56 = CARTESIAN_POINT ( 'NONE',  ( 5.750000000000000000, 7.041719095097280880E-16, 132.0000000000000000 ) ) ;
#57 = PERSON_AND_ORGANIZATION_ROLE ( 'creator' ) ;
#58 = CARTESIAN_POINT ( 'NONE',  ( 0.000000000000000000, 0.000000000000000000, 7.000000000000000000 ) ) ;
#59 = AXIS2_PLACEMENT_3D ( 'NONE', #223, #252, #70 ) ;
#60 = AXIS2_PLACEMENT_3D ( 'NONE', #222, #156, #241 ) ;
#61 = CIRCLE ( 'NONE', #37, 9.000000000000000000 ) ;
#62 = APPLICATION_CONTEXT ( 'configuration controlled 3d designs of mechanical parts and assemblies' ) ;
#63 = EDGE_LOOP ( 'NONE', ( #240, #174 ) ) ;
#64 = CARTESIAN_POINT ( 'NONE',  ( 0.000000000000000000, 0.000000000000000000, 0.000000000000000000 ) ) ;
#65 = ORIENTED_EDGE ( 'NONE', *, *, #169, .F. ) ;
#66 = DIRECTION ( 'NONE',  ( 1.000000000000000000, 0.000000000000000000, 0.000000000000000000 ) ) ;
#67 = VERTEX_POINT ( 'NONE', #128 ) ;
#68 = ADVANCED_FACE ( 'NONE', ( #204, #207 ), #69, .T. ) ;
#69 = PLANE ( 'NONE',  #162 ) ;
#70 = DIRECTION ( 'NONE',  ( -1.000000000000000000, 0.000000000000000000, 0.000000000000000000 ) ) ;
#71 = ORIENTED_EDGE ( 'NONE', *, *, #153, .F. ) ;
#72 = EDGE_CURVE ( 'NONE', #111, #151, #176, .T. ) ;
#73 = CALENDAR_DATE ( 2022, 7, 7 ) ;
#74 = PERSON_AND_ORGANIZATION_ROLE ( 'design_supplier' ) ;
#75 = APPLICATION_PROTOCOL_DEFINITION ( 'international standard', 'config_control_design', 1994, #62 ) ;
#76 = PERSON_AND_ORGANIZATION_ROLE ( 'design_owner' ) ;
#77 = DIRECTION ( 'NONE',  ( -1.000000000000000000, 0.000000000000000000, 0.000000000000000000 ) ) ;
#78 = APPROVAL_STATUS ( 'not_yet_approved' ) ;
#79 = PRODUCT_DEFINITION ( 'NEZNÁMÝ', '', #173, #1 ) ;
#80 = APPLICATION_CONTEXT ( 'configuration controlled 3d designs of mechanical parts and assemblies' ) ;
#81 = EDGE_CURVE ( 'NONE', #38, #219, #20, .T. ) ;
#82 = ORIENTED_EDGE ( 'NONE', *, *, #81, .F. ) ;
#83 = DIRECTION ( 'NONE',  ( 1.000000000000000000, 0.000000000000000000, -0.000000000000000000 ) ) ;
#84 = CYLINDRICAL_SURFACE ( 'NONE', #60, 5.750000000000000000 ) ;
#85 = CARTESIAN_POINT ( 'NONE',  ( 0.000000000000000000, 0.000000000000000000, 0.000000000000000000 ) ) ;
#86 = ORIENTED_EDGE ( 'NONE', *, *, #115, .T. ) ;
#87 = CARTESIAN_POINT ( 'NONE',  ( 0.000000000000000000, 0.000000000000000000, 0.000000000000000000 ) ) ;
#88 = CARTESIAN_POINT ( 'NONE',  ( 9.000000000000000000, 1.102182119232617714E-15, 0.000000000000000000 ) ) ;
#89 = CARTESIAN_POINT ( 'NONE',  ( -5.750000000000000000, 0.000000000000000000, 7.000000000000000000 ) ) ;
#90 = COORDINATED_UNIVERSAL_TIME_OFFSET ( 1, 0, .AHEAD. ) ;
#91 = DIRECTION ( 'NONE',  ( 0.000000000000000000, 0.000000000000000000, 1.000000000000000000 ) ) ;
#92 = AXIS2_PLACEMENT_3D ( 'NONE', #133, #13, #77 ) ;
#93 = ORIENTED_EDGE ( 'NONE', *, *, #24, .T. ) ;
#94 = APPROVAL_ROLE ( '' ) ;
#95 = DIRECTION ( 'NONE',  ( 1.000000000000000000, 0.000000000000000000, 0.000000000000000000 ) ) ;
#96 = APPROVAL_DATE_TIME ( #228, #14 ) ;
#97 = LOCAL_TIME ( 19, 21, 32.00000000000000000, #170 ) ;
#98 = CC_DESIGN_DATE_AND_TIME_ASSIGNMENT ( #187, #8, ( #175 ) ) ;
#99 = ADVANCED_FACE ( 'NONE', ( #164 ), #84, .T. ) ;
#100 = CIRCLE ( 'NONE', #52, 5.750000000000000000 ) ;
#101 = EDGE_LOOP ( 'NONE', ( #122, #93, #216, #152 ) ) ;
#102 = DIRECTION ( 'NONE',  ( 1.000000000000000000, 0.000000000000000000, -0.000000000000000000 ) ) ;
#103 = EDGE_CURVE ( 'NONE', #140, #219, #221, .T. ) ;
#104 = ORIENTED_EDGE ( 'NONE', *, *, #115, .F. ) ;
#105 = CARTESIAN_POINT ( 'NONE',  ( -9.000000000000000000, 0.000000000000000000, 7.000000000000000000 ) ) ;
#106 = ORIENTED_EDGE ( 'NONE', *, *, #24, .F. ) ;
#107 =( LENGTH_UNIT ( ) NAMED_UNIT ( * ) SI_UNIT ( .MILLI., .METRE. ) );
#108 = MANIFOLD_SOLID_BREP ( 'Pøidat vysunutím3', #48 ) ;
#109 = SECURITY_CLASSIFICATION_LEVEL ( 'unclassified' ) ;
#110 = DIRECTION ( 'NONE',  ( 1.000000000000000000, 0.000000000000000000, 0.000000000000000000 ) ) ;
#111 = VERTEX_POINT ( 'NONE', #28 ) ;
#112 = DATE_AND_TIME ( #206, #168 ) ;
#113 = PERSON_AND_ORGANIZATION ( #254, #19 ) ;
#114 = DIRECTION ( 'NONE',  ( -1.000000000000000000, 0.000000000000000000, 0.000000000000000000 ) ) ;
#115 = EDGE_CURVE ( 'NONE', #219, #38, #119, .T. ) ;
#116 = DATE_AND_TIME ( #163, #97 ) ;
#117 = FACE_OUTER_BOUND ( 'NONE', #101, .T. ) ;
#118 = EDGE_CURVE ( 'NONE', #199, #111, #235, .T. ) ;
#119 = CIRCLE ( 'NONE', #121, 9.000000000000000000 ) ;
#120 = ORIENTED_EDGE ( 'NONE', *, *, #42, .F. ) ;
#121 = AXIS2_PLACEMENT_3D ( 'NONE', #85, #246, #66 ) ;
#122 = ORIENTED_EDGE ( 'NONE', *, *, #21, .F. ) ;
#123 = AXIS2_PLACEMENT_3D ( 'NONE', #12, #91, #249 ) ;
#124 = CC_DESIGN_PERSON_AND_ORGANIZATION_ASSIGNMENT ( #253, #74, ( #173 ) ) ;
#125 = EDGE_CURVE ( 'NONE', #111, #199, #39, .T. ) ;
#126 = UNCERTAINTY_MEASURE_WITH_UNIT (LENGTH_MEASURE( 1.000000000000000082E-05 ), #107, 'distance_accuracy_value', 'NONE');
#127 = AXIS2_PLACEMENT_3D ( 'NONE', #161, #184, #211 ) ;
#128 = CARTESIAN_POINT ( 'NONE',  ( 5.750000000000000000, 7.041719095097280880E-16, 7.000000000000000000 ) ) ;
#129 = ORIENTED_EDGE ( 'NONE', *, *, #103, .T. ) ;
#130 = DIRECTION ( 'NONE',  ( 0.000000000000000000, 0.000000000000000000, 1.000000000000000000 ) ) ;
#131 = PERSON_AND_ORGANIZATION ( #254, #19 ) ;
#132 = CARTESIAN_POINT ( 'NONE',  ( -9.000000000000000000, 0.000000000000000000, 7.000000000000000000 ) ) ;
#133 = CARTESIAN_POINT ( 'NONE',  ( 0.000000000000000000, 0.000000000000000000, 7.000000000000000000 ) ) ;
#134 = COORDINATED_UNIVERSAL_TIME_OFFSET ( 1, 0, .AHEAD. ) ;
#135 = DIRECTION ( 'NONE',  ( 0.000000000000000000, 0.000000000000000000, 1.000000000000000000 ) ) ;
#136 = CIRCLE ( 'NONE', #127, 5.750000000000000000 ) ;
#137 = APPROVAL_ROLE ( '' ) ;
#138 = AXIS2_PLACEMENT_3D ( 'NONE', #87, #135, #230 ) ;
#139 = APPROVAL_PERSON_ORGANIZATION ( #131, #31, #32 ) ;
#140 = VERTEX_POINT ( 'NONE', #132 ) ;
#141 = CARTESIAN_POINT ( 'NONE',  ( 9.000000000000000000, 1.102182119232617714E-15, 7.000000000000000000 ) ) ;
#142 = CARTESIAN_POINT ( 'NONE',  ( 0.000000000000000000, 0.000000000000000000, 7.000000000000000000 ) ) ;
#143 = FACE_OUTER_BOUND ( 'NONE', #236, .T. ) ;
#144 = DIRECTION ( 'NONE',  ( -0.000000000000000000, -0.000000000000000000, -1.000000000000000000 ) ) ;
#145 =( NAMED_UNIT ( * ) PLANE_ANGLE_UNIT ( ) SI_UNIT ( $, .RADIAN. ) );
#146 = APPROVAL_STATUS ( 'not_yet_approved' ) ;
#147 = PERSON_AND_ORGANIZATION ( #254, #19 ) ;
#148 = CYLINDRICAL_SURFACE ( 'NONE', #59, 5.750000000000000000 ) ;
#149 = ADVANCED_FACE ( 'NONE', ( #143 ), #47, .T. ) ;
#150 = APPROVAL_DATE_TIME ( #116, #234 ) ;
#151 = VERTEX_POINT ( 'NONE', #89 ) ;
#152 = ORIENTED_EDGE ( 'NONE', *, *, #103, .F. ) ;
#153 = EDGE_CURVE ( 'NONE', #199, #67, #33, .T. ) ;
#154 = AXIS2_PLACEMENT_3D ( 'NONE', #9, #179, #160 ) ;
#155 = ORIENTED_EDGE ( 'NONE', *, *, #190, .F. ) ;
#156 = DIRECTION ( 'NONE',  ( -0.000000000000000000, -0.000000000000000000, -1.000000000000000000 ) ) ;
#157 = ORIENTED_EDGE ( 'NONE', *, *, #153, .T. ) ;
#158 = DIRECTION ( 'NONE',  ( -0.000000000000000000, -0.000000000000000000, -1.000000000000000000 ) ) ;
#159 = DIRECTION ( 'NONE',  ( 1.000000000000000000, 0.000000000000000000, 0.000000000000000000 ) ) ;
#160 = DIRECTION ( 'NONE',  ( 1.000000000000000000, 0.000000000000000000, 0.000000000000000000 ) ) ;
#161 = CARTESIAN_POINT ( 'NONE',  ( 0.000000000000000000, 0.000000000000000000, 7.000000000000000000 ) ) ;
#162 = AXIS2_PLACEMENT_3D ( 'NONE', #200, #25, #102 ) ;
#163 = CALENDAR_DATE ( 2022, 7, 7 ) ;
#164 = FACE_OUTER_BOUND ( 'NONE', #198, .T. ) ;
#165 = DIRECTION ( 'NONE',  ( -0.000000000000000000, -0.000000000000000000, -1.000000000000000000 ) ) ;
#166 = PERSON_AND_ORGANIZATION ( #254, #19 ) ;
#167 = FACE_OUTER_BOUND ( 'NONE', #250, .T. ) ;
#168 = LOCAL_TIME ( 19, 21, 32.00000000000000000, #134 ) ;
#169 = EDGE_CURVE ( 'NONE', #151, #67, #136, .T. ) ;
#170 = COORDINATED_UNIVERSAL_TIME_OFFSET ( 1, 0, .AHEAD. ) ;
#171 = PLANE ( 'NONE',  #138 ) ;
#172 = AXIS2_PLACEMENT_3D ( 'NONE', #183, #2, #50 ) ;
#173 = PRODUCT_DEFINITION_FORMATION_WITH_SPECIFIED_SOURCE ( 'LIBOVOLNÝ', '', #7, .NOT_KNOWN. ) ;
#174 = ORIENTED_EDGE ( 'NONE', *, *, #21, .T. ) ;
#175 = SECURITY_CLASSIFICATION ( '', '', #109 ) ;
#176 = LINE ( 'NONE', #27, #214 ) ;
#177 = ADVANCED_FACE ( 'NONE', ( #10 ), #6, .T. ) ;
#178 = DIRECTION ( 'NONE',  ( 0.000000000000000000, 0.000000000000000000, 1.000000000000000000 ) ) ;
#179 = DIRECTION ( 'NONE',  ( 0.000000000000000000, 0.000000000000000000, 1.000000000000000000 ) ) ;
#180 = CC_DESIGN_PERSON_AND_ORGANIZATION_ASSIGNMENT ( #36, #57, ( #173 ) ) ;
#181 = PRODUCT_DEFINITION_SHAPE ( 'NONE', 'NONE',  #79 ) ;
#182 = DATE_AND_TIME ( #55, #194 ) ;
#183 = CARTESIAN_POINT ( 'NONE',  ( 0.000000000000000000, 0.000000000000000000, 132.0000000000000000 ) ) ;
#184 = DIRECTION ( 'NONE',  ( 0.000000000000000000, 0.000000000000000000, 1.000000000000000000 ) ) ;
#185 = VERTEX_POINT ( 'NONE', #51 ) ;
#186 = ORIENTED_EDGE ( 'NONE', *, *, #169, .T. ) ;
#187 = DATE_AND_TIME ( #225, #29 ) ;
#188 = CARTESIAN_POINT ( 'NONE',  ( 5.750000000000000000, 7.041719095097280880E-16, 132.0000000000000000 ) ) ;
#189 = CC_DESIGN_SECURITY_CLASSIFICATION ( #175, ( #173 ) ) ;
#190 = EDGE_CURVE ( 'NONE', #67, #151, #100, .T. ) ;
#191 = PERSON_AND_ORGANIZATION_ROLE ( 'classification_officer' ) ;
#192 = DIRECTION ( 'NONE',  ( -0.000000000000000000, -0.000000000000000000, -1.000000000000000000 ) ) ;
#193 = AXIS2_PLACEMENT_3D ( 'NONE', #64, #3, #110 ) ;
#194 = LOCAL_TIME ( 19, 21, 32.00000000000000000, #90 ) ;
#195 = CIRCLE ( 'NONE', #154, 9.000000000000000000 ) ;
#196 = ADVANCED_FACE ( 'NONE', ( #167 ), #171, .F. ) ;
#197 = VECTOR ( 'NONE', #158, 1000.000000000000000 ) ;
#198 = EDGE_LOOP ( 'NONE', ( #203, #157, #53, #238 ) ) ;
#199 = VERTEX_POINT ( 'NONE', #188 ) ;
#200 = CARTESIAN_POINT ( 'NONE',  ( 0.000000000000000000, 0.000000000000000000, 7.000000000000000000 ) ) ;
#201 = ADVANCED_FACE ( 'NONE', ( #35 ), #148, .T. ) ;
#202 = EDGE_LOOP ( 'NONE', ( #71, #46, #45, #186 ) ) ;
#203 = ORIENTED_EDGE ( 'NONE', *, *, #118, .F. ) ;
#204 = FACE_BOUND ( 'NONE', #229, .T. ) ;
#205 = APPROVAL_PERSON_ORGANIZATION ( #166, #234, #94 ) ;
#206 = CALENDAR_DATE ( 2022, 7, 7 ) ;
#207 = FACE_OUTER_BOUND ( 'NONE', #63, .T. ) ;
#208 =( NAMED_UNIT ( * ) SI_UNIT ( $, .STERADIAN. ) SOLID_ANGLE_UNIT ( ) );
#209 = AXIS2_PLACEMENT_3D ( 'NONE', #242, #178, #159 ) ;
#210 = CARTESIAN_POINT ( 'NONE',  ( 0.000000000000000000, 0.000000000000000000, 7.000000000000000000 ) ) ;
#211 = DIRECTION ( 'NONE',  ( 1.000000000000000000, 0.000000000000000000, 0.000000000000000000 ) ) ;
#212 = COORDINATED_UNIVERSAL_TIME_OFFSET ( 1, 0, .AHEAD. ) ;
#213 = VECTOR ( 'NONE', #192, 1000.000000000000000 ) ;
#214 = VECTOR ( 'NONE', #144, 1000.000000000000000 ) ;
#215 = VECTOR ( 'NONE', #217, 1000.000000000000000 ) ;
#216 = ORIENTED_EDGE ( 'NONE', *, *, #81, .T. ) ;
#217 = DIRECTION ( 'NONE',  ( -0.000000000000000000, -0.000000000000000000, -1.000000000000000000 ) ) ;
#218 = ORIENTED_EDGE ( 'NONE', *, *, #118, .T. ) ;
#219 = VERTEX_POINT ( 'NONE', #16 ) ;
#220 = ADVANCED_FACE ( 'NONE', ( #117 ), #247, .T. ) ;
#221 = LINE ( 'NONE', #105, #197 ) ;
#222 = CARTESIAN_POINT ( 'NONE',  ( 0.000000000000000000, 0.000000000000000000, 132.0000000000000000 ) ) ;
#223 = CARTESIAN_POINT ( 'NONE',  ( 0.000000000000000000, 0.000000000000000000, 132.0000000000000000 ) ) ;
#224 = ADVANCED_BREP_SHAPE_REPRESENTATION ( '7583', ( #108, #123 ), #231 ) ;
#225 = CALENDAR_DATE ( 2022, 7, 7 ) ;
#226 = MECHANICAL_CONTEXT ( 'NONE', #62, 'mechanical' ) ;
#227 = SHAPE_DEFINITION_REPRESENTATION ( #181, #224 ) ;
#228 = DATE_AND_TIME ( #73, #5 ) ;
#229 = EDGE_LOOP ( 'NONE', ( #65, #155 ) ) ;
#230 = DIRECTION ( 'NONE',  ( 1.000000000000000000, 0.000000000000000000, -0.000000000000000000 ) ) ;
#231 =( GEOMETRIC_REPRESENTATION_CONTEXT ( 3 ) GLOBAL_UNCERTAINTY_ASSIGNED_CONTEXT ( ( #126 ) ) GLOBAL_UNIT_ASSIGNED_CONTEXT ( ( #107, #145, #208 ) ) REPRESENTATION_CONTEXT ( 'NONE', 'WORKASPACE' ) );
#232 = DATE_TIME_ROLE ( 'creation_date' ) ;
#233 = ORIENTED_EDGE ( 'NONE', *, *, #125, .T. ) ;
#234 = APPROVAL ( #78, 'NEURÈENÝ' ) ;
#235 = CIRCLE ( 'NONE', #209, 5.750000000000000000 ) ;
#236 = EDGE_LOOP ( 'NONE', ( #233, #218 ) ) ;
#237 = APPROVAL_PERSON_ORGANIZATION ( #15, #14, #137 ) ;
#238 = ORIENTED_EDGE ( 'NONE', *, *, #72, .F. ) ;
#239 = CC_DESIGN_APPROVAL ( #234, ( #173 ) ) ;
#240 = ORIENTED_EDGE ( 'NONE', *, *, #42, .T. ) ;
#241 = DIRECTION ( 'NONE',  ( -1.000000000000000000, 0.000000000000000000, 0.000000000000000000 ) ) ;
#242 = CARTESIAN_POINT ( 'NONE',  ( 0.000000000000000000, 0.000000000000000000, 132.0000000000000000 ) ) ;
#243 = DIRECTION ( 'NONE',  ( 0.000000000000000000, 0.000000000000000000, 1.000000000000000000 ) ) ;
#244 = DIRECTION ( 'NONE',  ( 0.000000000000000000, 0.000000000000000000, 1.000000000000000000 ) ) ;
#245 = PERSON_AND_ORGANIZATION ( #254, #19 ) ;
#246 = DIRECTION ( 'NONE',  ( 0.000000000000000000, 0.000000000000000000, 1.000000000000000000 ) ) ;
#247 = CYLINDRICAL_SURFACE ( 'NONE', #92, 9.000000000000000000 ) ;
#248 = PERSON_AND_ORGANIZATION_ROLE ( 'creator' ) ;
#249 = DIRECTION ( 'NONE',  ( 1.000000000000000000, 0.000000000000000000, 0.000000000000000000 ) ) ;
#250 = EDGE_LOOP ( 'NONE', ( #104, #82 ) ) ;
#251 = COORDINATED_UNIVERSAL_TIME_OFFSET ( 1, 0, .AHEAD. ) ;
#252 = DIRECTION ( 'NONE',  ( -0.000000000000000000, -0.000000000000000000, -1.000000000000000000 ) ) ;
#253 = PERSON_AND_ORGANIZATION ( #254, #19 ) ;
#254 = PERSON ( 'NEURÈENÝ', 'NEURÈENÝ', 'NEURÈENÝ', ('NEURÈENÝ'), ('NEURÈENÝ'), ('NEURÈENÝ') ) ;
#255 = AXIS2_PLACEMENT_3D ( 'NONE', #58, #165, #114 ) ;
ENDSEC;
END-ISO-10303-21;
