ISO-10303-21;
HEADER;
FILE_DESCRIPTION (( 'STEP AP203' ),
    '1' );
FILE_NAME ('5782.STEP',
    '2022-07-07T17:49:40',
    ( '' ),
    ( '' ),
    'SwSTEP 2.0',
    'SolidWorks 2019',
    '' );
FILE_SCHEMA (( 'CONFIG_CONTROL_DESIGN' ));
ENDSEC;

DATA;
#1 = LOCAL_TIME ( 19, 49, 40.00000000000000000, #207 ) ;
#2 = ADVANCED_FACE ( 'NONE', ( #11 ), #245, .T. ) ;
#3 = VECTOR ( 'NONE', #224, 1000.000000000000000 ) ;
#4 = DIRECTION ( 'NONE',  ( -1.000000000000000000, 0.000000000000000000, 0.000000000000000000 ) ) ;
#5 = DIRECTION ( 'NONE',  ( 1.000000000000000000, 0.000000000000000000, 0.000000000000000000 ) ) ;
#6 = PERSON_AND_ORGANIZATION ( #233, #77 ) ;
#7 = EDGE_LOOP ( 'NONE', ( #184, #182, #99, #40 ) ) ;
#8 = DIRECTION ( 'NONE',  ( 0.000000000000000000, 0.000000000000000000, 1.000000000000000000 ) ) ;
#9 = DATE_AND_TIME ( #186, #179 ) ;
#10 = ADVANCED_BREP_SHAPE_REPRESENTATION ( '5782', ( #235, #38 ), #228 ) ;
#11 = FACE_OUTER_BOUND ( 'NONE', #62, .T. ) ;
#12 = CARTESIAN_POINT ( 'NONE',  ( 4.000000000000000000, 4.898587196589412829E-16, 3.000000000000000000 ) ) ;
#13 = SECURITY_CLASSIFICATION_LEVEL ( 'unclassified' ) ;
#14 = LOCAL_TIME ( 19, 49, 40.00000000000000000, #51 ) ;
#15 = CARTESIAN_POINT ( 'NONE',  ( 0.000000000000000000, 0.000000000000000000, 3.000000000000000000 ) ) ;
#16 = APPLICATION_PROTOCOL_DEFINITION ( 'international standard', 'config_control_design', 1994, #18 ) ;
#17 = CC_DESIGN_PERSON_AND_ORGANIZATION_ASSIGNMENT ( #190, #44, ( #22 ) ) ;
#18 = APPLICATION_CONTEXT ( 'configuration controlled 3d designs of mechanical parts and assemblies' ) ;
#19 = APPROVAL ( #41, 'NEURÈENÝ' ) ;
#20 = EDGE_CURVE ( 'NONE', #178, #85, #214, .T. ) ;
#21 = ORIENTED_EDGE ( 'NONE', *, *, #173, .T. ) ;
#22 = PRODUCT_DEFINITION_FORMATION_WITH_SPECIFIED_SOURCE ( 'LIBOVOLNÝ', '', #177, .NOT_KNOWN. ) ;
#23 = COORDINATED_UNIVERSAL_TIME_OFFSET ( 1, 0, .AHEAD. ) ;
#24 = EDGE_LOOP ( 'NONE', ( #160, #45, #92, #25 ) ) ;
#25 = ORIENTED_EDGE ( 'NONE', *, *, #90, .T. ) ;
#26 = DIRECTION ( 'NONE',  ( 0.000000000000000000, 0.000000000000000000, 1.000000000000000000 ) ) ;
#27 = EDGE_CURVE ( 'NONE', #59, #121, #161, .T. ) ;
#28 = LINE ( 'NONE', #238, #3 ) ;
#29 = CARTESIAN_POINT ( 'NONE',  ( 0.000000000000000000, 0.000000000000000000, 503.0000000000000000 ) ) ;
#30 = PERSON_AND_ORGANIZATION_ROLE ( 'design_supplier' ) ;
#31 = VERTEX_POINT ( 'NONE', #204 ) ;
#32 = DIRECTION ( 'NONE',  ( 0.000000000000000000, 0.000000000000000000, 1.000000000000000000 ) ) ;
#33 = DIRECTION ( 'NONE',  ( -1.000000000000000000, 0.000000000000000000, 0.000000000000000000 ) ) ;
#34 = CC_DESIGN_DATE_AND_TIME_ASSIGNMENT ( #227, #113, ( #253 ) ) ;
#35 = PERSON_AND_ORGANIZATION_ROLE ( 'creator' ) ;
#36 = ADVANCED_FACE ( 'NONE', ( #42 ), #72, .T. ) ;
#37 = CIRCLE ( 'NONE', #158, 2.100000000000000089 ) ;
#38 = AXIS2_PLACEMENT_3D ( 'NONE', #175, #170, #219 ) ;
#39 = APPROVAL_DATE_TIME ( #102, #19 ) ;
#40 = ORIENTED_EDGE ( 'NONE', *, *, #20, .F. ) ;
#41 = APPROVAL_STATUS ( 'not_yet_approved' ) ;
#42 = FACE_OUTER_BOUND ( 'NONE', #159, .T. ) ;
#43 = LINE ( 'NONE', #125, #60 ) ;
#44 = PERSON_AND_ORGANIZATION_ROLE ( 'creator' ) ;
#45 = ORIENTED_EDGE ( 'NONE', *, *, #189, .F. ) ;
#46 = DIRECTION ( 'NONE',  ( 1.000000000000000000, 0.000000000000000000, -0.000000000000000000 ) ) ;
#47 = CALENDAR_DATE ( 2022, 7, 7 ) ;
#48 = AXIS2_PLACEMENT_3D ( 'NONE', #163, #236, #124 ) ;
#49 = FACE_OUTER_BOUND ( 'NONE', #217, .T. ) ;
#50 = DIRECTION ( 'NONE',  ( 1.000000000000000000, 0.000000000000000000, 0.000000000000000000 ) ) ;
#51 = COORDINATED_UNIVERSAL_TIME_OFFSET ( 1, 0, .AHEAD. ) ;
#52 = FACE_OUTER_BOUND ( 'NONE', #24, .T. ) ;
#53 = FACE_OUTER_BOUND ( 'NONE', #7, .T. ) ;
#54 = LOCAL_TIME ( 19, 49, 40.00000000000000000, #23 ) ;
#55 = EDGE_CURVE ( 'NONE', #230, #121, #28, .T. ) ;
#56 = ORIENTED_EDGE ( 'NONE', *, *, #119, .F. ) ;
#57 = AXIS2_PLACEMENT_3D ( 'NONE', #237, #65, #122 ) ;
#58 = ADVANCED_FACE ( 'NONE', ( #52 ), #242, .T. ) ;
#59 = VERTEX_POINT ( 'NONE', #64 ) ;
#60 = VECTOR ( 'NONE', #164, 1000.000000000000000 ) ;
#61 = EDGE_LOOP ( 'NONE', ( #139, #198 ) ) ;
#62 = EDGE_LOOP ( 'NONE', ( #137, #107 ) ) ;
#63 = FACE_BOUND ( 'NONE', #127, .T. ) ;
#64 = CARTESIAN_POINT ( 'NONE',  ( -2.100000000000000089, 0.000000000000000000, 3.000000000000000000 ) ) ;
#65 = DIRECTION ( 'NONE',  ( -0.000000000000000000, -0.000000000000000000, -1.000000000000000000 ) ) ;
#66 = DATE_AND_TIME ( #74, #1 ) ;
#67 = CARTESIAN_POINT ( 'NONE',  ( 0.000000000000000000, 0.000000000000000000, 3.000000000000000000 ) ) ;
#68 = PLANE ( 'NONE',  #134 ) ;
#69 = AXIS2_PLACEMENT_3D ( 'NONE', #166, #249, #46 ) ;
#70 = CC_DESIGN_PERSON_AND_ORGANIZATION_ASSIGNMENT ( #129, #35, ( #253 ) ) ;
#71 = CC_DESIGN_APPROVAL ( #195, ( #22 ) ) ;
#72 = CYLINDRICAL_SURFACE ( 'NONE', #116, 2.100000000000000089 ) ;
#73 = DIRECTION ( 'NONE',  ( 1.000000000000000000, 0.000000000000000000, 0.000000000000000000 ) ) ;
#74 = CALENDAR_DATE ( 2022, 7, 7 ) ;
#75 = DIRECTION ( 'NONE',  ( 0.000000000000000000, 0.000000000000000000, 1.000000000000000000 ) ) ;
#76 = PERSON_AND_ORGANIZATION_ROLE ( 'design_owner' ) ;
#77 = ORGANIZATION ( 'NEURÈENÝ', 'NEURÈENÝ', '' ) ;
#78 = ADVANCED_FACE ( 'NONE', ( #49 ), #105, .T. ) ;
#79 = AXIS2_PLACEMENT_3D ( 'NONE', #67, #208, #33 ) ;
#80 = AXIS2_PLACEMENT_3D ( 'NONE', #222, #75, #50 ) ;
#81 = CARTESIAN_POINT ( 'NONE',  ( -4.000000000000000000, 0.000000000000000000, 3.000000000000000000 ) ) ;
#82 = CIRCLE ( 'NONE', #80, 4.000000000000000000 ) ;
#83 = SHAPE_DEFINITION_REPRESENTATION ( #97, #10 ) ;
#84 = PRODUCT_RELATED_PRODUCT_CATEGORY ( 'detail', '', ( #177 ) ) ;
#85 = VERTEX_POINT ( 'NONE', #142 ) ;
#86 = DIRECTION ( 'NONE',  ( 0.000000000000000000, 0.000000000000000000, 1.000000000000000000 ) ) ;
#87 = APPROVAL_ROLE ( '' ) ;
#88 = ORIENTED_EDGE ( 'NONE', *, *, #27, .F. ) ;
#89 = CARTESIAN_POINT ( 'NONE',  ( 2.100000000000000089, 2.571758278209441957E-16, 3.000000000000000000 ) ) ;
#90 = EDGE_CURVE ( 'NONE', #85, #171, #82, .T. ) ;
#91 = APPROVAL_STATUS ( 'not_yet_approved' ) ;
#92 = ORIENTED_EDGE ( 'NONE', *, *, #20, .T. ) ;
#93 = CYLINDRICAL_SURFACE ( 'NONE', #255, 4.000000000000000000 ) ;
#94 = DATE_TIME_ROLE ( 'classification_date' ) ;
#95 = AXIS2_PLACEMENT_3D ( 'NONE', #15, #8, #73 ) ;
#96 = LINE ( 'NONE', #12, #176 ) ;
#97 = PRODUCT_DEFINITION_SHAPE ( 'NONE', 'NONE',  #253 ) ;
#98 = APPROVAL ( #226, 'NEURÈENÝ' ) ;
#99 = ORIENTED_EDGE ( 'NONE', *, *, #205, .T. ) ;
#100 = AXIS2_PLACEMENT_3D ( 'NONE', #188, #225, #247 ) ;
#101 = CC_DESIGN_APPROVAL ( #98, ( #253 ) ) ;
#102 = DATE_AND_TIME ( #213, #54 ) ;
#103 = ORIENTED_EDGE ( 'NONE', *, *, #55, .F. ) ;
#104 = DIRECTION ( 'NONE',  ( -0.000000000000000000, -0.000000000000000000, -1.000000000000000000 ) ) ;
#105 = CYLINDRICAL_SURFACE ( 'NONE', #57, 2.100000000000000089 ) ;
#106 = APPROVAL_PERSON_ORGANIZATION ( #6, #98, #209 ) ;
#107 = ORIENTED_EDGE ( 'NONE', *, *, #119, .T. ) ;
#108 = EDGE_CURVE ( 'NONE', #221, #178, #231, .T. ) ;
#109 = FACE_OUTER_BOUND ( 'NONE', #61, .T. ) ;
#110 = PERSON_AND_ORGANIZATION_ROLE ( 'classification_officer' ) ;
#111 = ORIENTED_EDGE ( 'NONE', *, *, #155, .F. ) ;
#112 = CARTESIAN_POINT ( 'NONE',  ( 0.000000000000000000, 0.000000000000000000, 3.000000000000000000 ) ) ;
#113 = DATE_TIME_ROLE ( 'creation_date' ) ;
#114 =( LENGTH_UNIT ( ) NAMED_UNIT ( * ) SI_UNIT ( .MILLI., .METRE. ) );
#115 = CLOSED_SHELL ( 'NONE', ( #78, #117, #58, #147, #240, #36, #2 ) ) ;
#116 = AXIS2_PLACEMENT_3D ( 'NONE', #199, #104, #4 ) ;
#117 = ADVANCED_FACE ( 'NONE', ( #53 ), #93, .T. ) ;
#118 = CC_DESIGN_DATE_AND_TIME_ASSIGNMENT ( #9, #94, ( #254 ) ) ;
#119 = EDGE_CURVE ( 'NONE', #230, #31, #234, .T. ) ;
#120 = ORIENTED_EDGE ( 'NONE', *, *, #90, .F. ) ;
#121 = VERTEX_POINT ( 'NONE', #89 ) ;
#122 = DIRECTION ( 'NONE',  ( -1.000000000000000000, 0.000000000000000000, 0.000000000000000000 ) ) ;
#123 = EDGE_CURVE ( 'NONE', #121, #59, #37, .T. ) ;
#124 = DIRECTION ( 'NONE',  ( 1.000000000000000000, 0.000000000000000000, 0.000000000000000000 ) ) ;
#125 = CARTESIAN_POINT ( 'NONE',  ( -2.100000000000000089, 0.000000000000000000, 503.0000000000000000 ) ) ;
#126 = CALENDAR_DATE ( 2022, 7, 7 ) ;
#127 = EDGE_LOOP ( 'NONE', ( #88, #130 ) ) ;
#128 = CARTESIAN_POINT ( 'NONE',  ( 0.000000000000000000, 0.000000000000000000, 3.000000000000000000 ) ) ;
#129 = PERSON_AND_ORGANIZATION ( #233, #77 ) ;
#130 = ORIENTED_EDGE ( 'NONE', *, *, #123, .F. ) ;
#131 = DIRECTION ( 'NONE',  ( 1.000000000000000000, 0.000000000000000000, -0.000000000000000000 ) ) ;
#132 = PERSON_AND_ORGANIZATION ( #233, #77 ) ;
#133 = APPROVAL_DATE_TIME ( #66, #195 ) ;
#134 = AXIS2_PLACEMENT_3D ( 'NONE', #150, #32, #131 ) ;
#135 = LOCAL_TIME ( 19, 49, 40.00000000000000000, #157 ) ;
#136 = CC_DESIGN_APPROVAL ( #19, ( #254 ) ) ;
#137 = ORIENTED_EDGE ( 'NONE', *, *, #155, .T. ) ;
#138 = EDGE_CURVE ( 'NONE', #221, #171, #96, .T. ) ;
#139 = ORIENTED_EDGE ( 'NONE', *, *, #189, .T. ) ;
#140 = AXIS2_PLACEMENT_3D ( 'NONE', #29, #215, #243 ) ;
#141 = DIRECTION ( 'NONE',  ( -0.000000000000000000, -0.000000000000000000, -1.000000000000000000 ) ) ;
#142 = CARTESIAN_POINT ( 'NONE',  ( -4.000000000000000000, 0.000000000000000000, 0.000000000000000000 ) ) ;
#143 = APPLICATION_PROTOCOL_DEFINITION ( 'international standard', 'config_control_design', 1994, #232 ) ;
#144 = DIRECTION ( 'NONE',  ( 0.000000000000000000, 0.000000000000000000, 1.000000000000000000 ) ) ;
#145 = DIRECTION ( 'NONE',  ( 1.000000000000000000, 0.000000000000000000, 0.000000000000000000 ) ) ;
#146 = PERSON_AND_ORGANIZATION ( #233, #77 ) ;
#147 = ADVANCED_FACE ( 'NONE', ( #63, #109 ), #218, .T. ) ;
#148 = EDGE_LOOP ( 'NONE', ( #120, #152 ) ) ;
#149 = APPROVAL_PERSON_ORGANIZATION ( #223, #195, #87 ) ;
#150 = CARTESIAN_POINT ( 'NONE',  ( 0.000000000000000000, 0.000000000000000000, 0.000000000000000000 ) ) ;
#151 = APPROVAL_DATE_TIME ( #241, #98 ) ;
#152 = ORIENTED_EDGE ( 'NONE', *, *, #205, .F. ) ;
#153 = CARTESIAN_POINT ( 'NONE',  ( 2.100000000000000089, 2.571758278209441957E-16, 503.0000000000000000 ) ) ;
#154 = ORIENTED_EDGE ( 'NONE', *, *, #173, .F. ) ;
#155 = EDGE_CURVE ( 'NONE', #31, #230, #211, .T. ) ;
#156 = CARTESIAN_POINT ( 'NONE',  ( 4.000000000000000000, 4.898587196589412829E-16, 0.000000000000000000 ) ) ;
#157 = COORDINATED_UNIVERSAL_TIME_OFFSET ( 1, 0, .AHEAD. ) ;
#158 = AXIS2_PLACEMENT_3D ( 'NONE', #128, #26, #145 ) ;
#159 = EDGE_LOOP ( 'NONE', ( #103, #111, #21, #187 ) ) ;
#160 = ORIENTED_EDGE ( 'NONE', *, *, #138, .F. ) ;
#161 = CIRCLE ( 'NONE', #48, 2.100000000000000089 ) ;
#162 = APPROVAL_ROLE ( '' ) ;
#163 = CARTESIAN_POINT ( 'NONE',  ( 0.000000000000000000, 0.000000000000000000, 3.000000000000000000 ) ) ;
#164 = DIRECTION ( 'NONE',  ( -0.000000000000000000, -0.000000000000000000, -1.000000000000000000 ) ) ;
#165 = ORIENTED_EDGE ( 'NONE', *, *, #123, .T. ) ;
#166 = CARTESIAN_POINT ( 'NONE',  ( 0.000000000000000000, 0.000000000000000000, 3.000000000000000000 ) ) ;
#167 =( NAMED_UNIT ( * ) PLANE_ANGLE_UNIT ( ) SI_UNIT ( $, .RADIAN. ) );
#168 = ORIENTED_EDGE ( 'NONE', *, *, #55, .T. ) ;
#169 = CARTESIAN_POINT ( 'NONE',  ( 4.000000000000000000, 4.898587196589412829E-16, 3.000000000000000000 ) ) ;
#170 = DIRECTION ( 'NONE',  ( 0.000000000000000000, 0.000000000000000000, 1.000000000000000000 ) ) ;
#171 = VERTEX_POINT ( 'NONE', #156 ) ;
#172 = CARTESIAN_POINT ( 'NONE',  ( 0.000000000000000000, 0.000000000000000000, 3.000000000000000000 ) ) ;
#173 = EDGE_CURVE ( 'NONE', #31, #59, #43, .T. ) ;
#174 = DIRECTION ( 'NONE',  ( -0.000000000000000000, -0.000000000000000000, -1.000000000000000000 ) ) ;
#175 = CARTESIAN_POINT ( 'NONE',  ( 0.000000000000000000, 0.000000000000000000, 0.000000000000000000 ) ) ;
#176 = VECTOR ( 'NONE', #174, 1000.000000000000000 ) ;
#177 = PRODUCT ( '5782', '5782', '', ( #250 ) ) ;
#178 = VERTEX_POINT ( 'NONE', #185 ) ;
#179 = LOCAL_TIME ( 19, 49, 40.00000000000000000, #216 ) ;
#180 = AXIS2_PLACEMENT_3D ( 'NONE', #112, #86, #202 ) ;
#181 = CARTESIAN_POINT ( 'NONE',  ( 0.000000000000000000, 0.000000000000000000, 503.0000000000000000 ) ) ;
#182 = ORIENTED_EDGE ( 'NONE', *, *, #138, .T. ) ;
#183 = DIRECTION ( 'NONE',  ( 0.000000000000000000, 0.000000000000000000, 1.000000000000000000 ) ) ;
#184 = ORIENTED_EDGE ( 'NONE', *, *, #108, .F. ) ;
#185 = CARTESIAN_POINT ( 'NONE',  ( -4.000000000000000000, 0.000000000000000000, 3.000000000000000000 ) ) ;
#186 = CALENDAR_DATE ( 2022, 7, 7 ) ;
#187 = ORIENTED_EDGE ( 'NONE', *, *, #27, .T. ) ;
#188 = CARTESIAN_POINT ( 'NONE',  ( 0.000000000000000000, 0.000000000000000000, 503.0000000000000000 ) ) ;
#189 = EDGE_CURVE ( 'NONE', #178, #221, #244, .T. ) ;
#190 = PERSON_AND_ORGANIZATION ( #233, #77 ) ;
#191 = DIRECTION ( 'NONE',  ( -0.000000000000000000, -0.000000000000000000, -1.000000000000000000 ) ) ;
#192 = VECTOR ( 'NONE', #141, 1000.000000000000000 ) ;
#193 =( NAMED_UNIT ( * ) SI_UNIT ( $, .STERADIAN. ) SOLID_ANGLE_UNIT ( ) );
#194 = DESIGN_CONTEXT ( 'detailed design', #232, 'design' ) ;
#195 = APPROVAL ( #91, 'NEURÈENÝ' ) ;
#196 = AXIS2_PLACEMENT_3D ( 'NONE', #181, #144, #201 ) ;
#197 = CC_DESIGN_PERSON_AND_ORGANIZATION_ASSIGNMENT ( #203, #110, ( #254 ) ) ;
#198 = ORIENTED_EDGE ( 'NONE', *, *, #108, .T. ) ;
#199 = CARTESIAN_POINT ( 'NONE',  ( 0.000000000000000000, 0.000000000000000000, 503.0000000000000000 ) ) ;
#200 = CARTESIAN_POINT ( 'NONE',  ( 0.000000000000000000, 0.000000000000000000, 0.000000000000000000 ) ) ;
#201 = DIRECTION ( 'NONE',  ( 1.000000000000000000, 0.000000000000000000, -0.000000000000000000 ) ) ;
#202 = DIRECTION ( 'NONE',  ( 1.000000000000000000, 0.000000000000000000, 0.000000000000000000 ) ) ;
#203 = PERSON_AND_ORGANIZATION ( #233, #77 ) ;
#204 = CARTESIAN_POINT ( 'NONE',  ( -2.100000000000000089, 0.000000000000000000, 503.0000000000000000 ) ) ;
#205 = EDGE_CURVE ( 'NONE', #171, #85, #252, .T. ) ;
#206 = FACE_OUTER_BOUND ( 'NONE', #148, .T. ) ;
#207 = COORDINATED_UNIVERSAL_TIME_OFFSET ( 1, 0, .AHEAD. ) ;
#208 = DIRECTION ( 'NONE',  ( -0.000000000000000000, -0.000000000000000000, -1.000000000000000000 ) ) ;
#209 = APPROVAL_ROLE ( '' ) ;
#210 = CC_DESIGN_SECURITY_CLASSIFICATION ( #254, ( #22 ) ) ;
#211 = CIRCLE ( 'NONE', #100, 2.100000000000000089 ) ;
#212 = AXIS2_PLACEMENT_3D ( 'NONE', #200, #183, #5 ) ;
#213 = CALENDAR_DATE ( 2022, 7, 7 ) ;
#214 = LINE ( 'NONE', #81, #192 ) ;
#215 = DIRECTION ( 'NONE',  ( 0.000000000000000000, 0.000000000000000000, 1.000000000000000000 ) ) ;
#216 = COORDINATED_UNIVERSAL_TIME_OFFSET ( 1, 0, .AHEAD. ) ;
#217 = EDGE_LOOP ( 'NONE', ( #56, #168, #165, #154 ) ) ;
#218 = PLANE ( 'NONE',  #69 ) ;
#219 = DIRECTION ( 'NONE',  ( 1.000000000000000000, 0.000000000000000000, 0.000000000000000000 ) ) ;
#220 = CC_DESIGN_PERSON_AND_ORGANIZATION_ASSIGNMENT ( #132, #76, ( #177 ) ) ;
#221 = VERTEX_POINT ( 'NONE', #169 ) ;
#222 = CARTESIAN_POINT ( 'NONE',  ( 0.000000000000000000, 0.000000000000000000, 0.000000000000000000 ) ) ;
#223 = PERSON_AND_ORGANIZATION ( #233, #77 ) ;
#224 = DIRECTION ( 'NONE',  ( -0.000000000000000000, -0.000000000000000000, -1.000000000000000000 ) ) ;
#225 = DIRECTION ( 'NONE',  ( 0.000000000000000000, 0.000000000000000000, 1.000000000000000000 ) ) ;
#226 = APPROVAL_STATUS ( 'not_yet_approved' ) ;
#227 = DATE_AND_TIME ( #126, #14 ) ;
#228 =( GEOMETRIC_REPRESENTATION_CONTEXT ( 3 ) GLOBAL_UNCERTAINTY_ASSIGNED_CONTEXT ( ( #251 ) ) GLOBAL_UNIT_ASSIGNED_CONTEXT ( ( #114, #167, #193 ) ) REPRESENTATION_CONTEXT ( 'NONE', 'WORKASPACE' ) );
#229 = CC_DESIGN_PERSON_AND_ORGANIZATION_ASSIGNMENT ( #146, #30, ( #22 ) ) ;
#230 = VERTEX_POINT ( 'NONE', #153 ) ;
#231 = CIRCLE ( 'NONE', #180, 4.000000000000000000 ) ;
#232 = APPLICATION_CONTEXT ( 'configuration controlled 3d designs of mechanical parts and assemblies' ) ;
#233 = PERSON ( 'NEURÈENÝ', 'NEURÈENÝ', 'NEURÈENÝ', ('NEURÈENÝ'), ('NEURÈENÝ'), ('NEURÈENÝ') ) ;
#234 = CIRCLE ( 'NONE', #140, 2.100000000000000089 ) ;
#235 = MANIFOLD_SOLID_BREP ( 'Pøidat vysunutím3', #115 ) ;
#236 = DIRECTION ( 'NONE',  ( 0.000000000000000000, 0.000000000000000000, 1.000000000000000000 ) ) ;
#237 = CARTESIAN_POINT ( 'NONE',  ( 0.000000000000000000, 0.000000000000000000, 503.0000000000000000 ) ) ;
#238 = CARTESIAN_POINT ( 'NONE',  ( 2.100000000000000089, 2.571758278209441957E-16, 503.0000000000000000 ) ) ;
#239 = DIRECTION ( 'NONE',  ( -1.000000000000000000, 0.000000000000000000, 0.000000000000000000 ) ) ;
#240 = ADVANCED_FACE ( 'NONE', ( #206 ), #68, .F. ) ;
#241 = DATE_AND_TIME ( #47, #135 ) ;
#242 = CYLINDRICAL_SURFACE ( 'NONE', #79, 4.000000000000000000 ) ;
#243 = DIRECTION ( 'NONE',  ( 1.000000000000000000, 0.000000000000000000, 0.000000000000000000 ) ) ;
#244 = CIRCLE ( 'NONE', #95, 4.000000000000000000 ) ;
#245 = PLANE ( 'NONE',  #196 ) ;
#246 = APPROVAL_PERSON_ORGANIZATION ( #248, #19, #162 ) ;
#247 = DIRECTION ( 'NONE',  ( 1.000000000000000000, 0.000000000000000000, 0.000000000000000000 ) ) ;
#248 = PERSON_AND_ORGANIZATION ( #233, #77 ) ;
#249 = DIRECTION ( 'NONE',  ( 0.000000000000000000, 0.000000000000000000, 1.000000000000000000 ) ) ;
#250 = MECHANICAL_CONTEXT ( 'NONE', #18, 'mechanical' ) ;
#251 = UNCERTAINTY_MEASURE_WITH_UNIT (LENGTH_MEASURE( 1.000000000000000082E-05 ), #114, 'distance_accuracy_value', 'NONE');
#252 = CIRCLE ( 'NONE', #212, 4.000000000000000000 ) ;
#253 = PRODUCT_DEFINITION ( 'NEZNÁMÝ', '', #22, #194 ) ;
#254 = SECURITY_CLASSIFICATION ( '', '', #13 ) ;
#255 = AXIS2_PLACEMENT_3D ( 'NONE', #172, #191, #239 ) ;
ENDSEC;
END-ISO-10303-21;
