ISO-10303-21;
HEADER;
FILE_DESCRIPTION (( 'STEP AP203' ),
    '1' );
FILE_NAME ('e39d.STEP',
    '2022-07-07T17:18:41',
    ( '' ),
    ( '' ),
    'SwSTEP 2.0',
    'SolidWorks 2019',
    '' );
FILE_SCHEMA (( 'CONFIG_CONTROL_DESIGN' ));
ENDSEC;

DATA;
#1 = ORIENTED_EDGE ( 'NONE', *, *, #32, .T. ) ;
#2 = DIRECTION ( 'NONE',  ( 0.000000000000000000, 0.000000000000000000, 1.000000000000000000 ) ) ;
#3 = CIRCLE ( 'NONE', #178, 9.000000000000000000 ) ;
#4 = ORIENTED_EDGE ( 'NONE', *, *, #18, .F. ) ;
#5 = CARTESIAN_POINT ( 'NONE',  ( 0.000000000000000000, 0.000000000000000000, 7.000000000000000000 ) ) ;
#6 = CC_DESIGN_DATE_AND_TIME_ASSIGNMENT ( #24, #84, ( #35 ) ) ;
#7 = PERSON_AND_ORGANIZATION ( #125, #150 ) ;
#8 = CARTESIAN_POINT ( 'NONE',  ( 6.250000000000000000, 7.654042494670957606E-16, 132.0000000000000000 ) ) ;
#9 = CARTESIAN_POINT ( 'NONE',  ( 0.000000000000000000, 0.000000000000000000, 132.0000000000000000 ) ) ;
#10 = DIRECTION ( 'NONE',  ( -0.000000000000000000, -0.000000000000000000, -1.000000000000000000 ) ) ;
#11 = CARTESIAN_POINT ( 'NONE',  ( 0.000000000000000000, 0.000000000000000000, 0.000000000000000000 ) ) ;
#12 = AXIS2_PLACEMENT_3D ( 'NONE', #23, #10, #95 ) ;
#13 = PERSON_AND_ORGANIZATION ( #125, #150 ) ;
#14 = ADVANCED_FACE ( 'NONE', ( #77 ), #198, .F. ) ;
#15 = SECURITY_CLASSIFICATION_LEVEL ( 'unclassified' ) ;
#16 = APPROVAL ( #207, 'NEURÈENÝ' ) ;
#17 = DATE_TIME_ROLE ( 'classification_date' ) ;
#18 = EDGE_CURVE ( 'NONE', #174, #39, #26, .T. ) ;
#19 = ORIENTED_EDGE ( 'NONE', *, *, #249, .F. ) ;
#20 = CARTESIAN_POINT ( 'NONE',  ( 0.000000000000000000, 0.000000000000000000, 7.000000000000000000 ) ) ;
#21 = CARTESIAN_POINT ( 'NONE',  ( 9.000000000000000000, 1.102182119232617714E-15, 7.000000000000000000 ) ) ;
#22 = ORIENTED_EDGE ( 'NONE', *, *, #71, .F. ) ;
#23 = CARTESIAN_POINT ( 'NONE',  ( 0.000000000000000000, 0.000000000000000000, 132.0000000000000000 ) ) ;
#24 = DATE_AND_TIME ( #44, #210 ) ;
#25 = UNCERTAINTY_MEASURE_WITH_UNIT (LENGTH_MEASURE( 1.000000000000000082E-05 ), #176, 'distance_accuracy_value', 'NONE');
#26 = LINE ( 'NONE', #98, #247 ) ;
#27 = DIRECTION ( 'NONE',  ( 1.000000000000000000, 0.000000000000000000, 0.000000000000000000 ) ) ;
#28 = ORIENTED_EDGE ( 'NONE', *, *, #149, .T. ) ;
#29 = CYLINDRICAL_SURFACE ( 'NONE', #12, 6.250000000000000000 ) ;
#30 = ADVANCED_BREP_SHAPE_REPRESENTATION ( 'e39d', ( #108, #194 ), #251 ) ;
#31 = PERSON_AND_ORGANIZATION ( #125, #150 ) ;
#32 = EDGE_CURVE ( 'NONE', #195, #42, #181, .T. ) ;
#33 = CARTESIAN_POINT ( 'NONE',  ( 6.250000000000000000, 7.654042494670957606E-16, 132.0000000000000000 ) ) ;
#34 = APPROVAL_PERSON_ORGANIZATION ( #152, #132, #191 ) ;
#35 = PRODUCT_DEFINITION ( 'NEZNÁMÝ', '', #244, #85 ) ;
#36 = CALENDAR_DATE ( 2022, 7, 7 ) ;
#37 = CIRCLE ( 'NONE', #88, 6.250000000000000000 ) ;
#38 = AXIS2_PLACEMENT_3D ( 'NONE', #163, #2, #243 ) ;
#39 = VERTEX_POINT ( 'NONE', #255 ) ;
#40 = CC_DESIGN_PERSON_AND_ORGANIZATION_ASSIGNMENT ( #127, #211, ( #244 ) ) ;
#41 = DIRECTION ( 'NONE',  ( 0.000000000000000000, 0.000000000000000000, 1.000000000000000000 ) ) ;
#42 = VERTEX_POINT ( 'NONE', #73 ) ;
#43 = PLANE ( 'NONE',  #38 ) ;
#44 = CALENDAR_DATE ( 2022, 7, 7 ) ;
#45 = DIRECTION ( 'NONE',  ( 1.000000000000000000, 0.000000000000000000, -0.000000000000000000 ) ) ;
#46 = CC_DESIGN_PERSON_AND_ORGANIZATION_ASSIGNMENT ( #183, #138, ( #221 ) ) ;
#47 = DIRECTION ( 'NONE',  ( 0.000000000000000000, 0.000000000000000000, 1.000000000000000000 ) ) ;
#48 =( NAMED_UNIT ( * ) PLANE_ANGLE_UNIT ( ) SI_UNIT ( $, .RADIAN. ) );
#49 = EDGE_LOOP ( 'NONE', ( #119, #173 ) ) ;
#50 = FACE_OUTER_BOUND ( 'NONE', #226, .T. ) ;
#51 = COORDINATED_UNIVERSAL_TIME_OFFSET ( 1, 0, .AHEAD. ) ;
#52 = CARTESIAN_POINT ( 'NONE',  ( 0.000000000000000000, 0.000000000000000000, 7.000000000000000000 ) ) ;
#53 = ADVANCED_FACE ( 'NONE', ( #153, #235 ), #43, .T. ) ;
#54 = VECTOR ( 'NONE', #241, 1000.000000000000000 ) ;
#55 = PERSON_AND_ORGANIZATION_ROLE ( 'creator' ) ;
#56 = PRODUCT_DEFINITION_SHAPE ( 'NONE', 'NONE',  #35 ) ;
#57 = DIRECTION ( 'NONE',  ( -0.000000000000000000, -0.000000000000000000, -1.000000000000000000 ) ) ;
#58 = ORIENTED_EDGE ( 'NONE', *, *, #148, .T. ) ;
#59 = FACE_OUTER_BOUND ( 'NONE', #216, .T. ) ;
#60 = EDGE_LOOP ( 'NONE', ( #162, #19, #94, #28 ) ) ;
#61 = DIRECTION ( 'NONE',  ( 0.000000000000000000, 0.000000000000000000, 1.000000000000000000 ) ) ;
#62 = CALENDAR_DATE ( 2022, 7, 7 ) ;
#63 = ORIENTED_EDGE ( 'NONE', *, *, #164, .F. ) ;
#64 = EDGE_CURVE ( 'NONE', #239, #159, #115, .T. ) ;
#65 = CARTESIAN_POINT ( 'NONE',  ( -6.250000000000000000, 0.000000000000000000, 132.0000000000000000 ) ) ;
#66 = DIRECTION ( 'NONE',  ( -0.000000000000000000, -0.000000000000000000, -1.000000000000000000 ) ) ;
#67 = APPLICATION_PROTOCOL_DEFINITION ( 'international standard', 'config_control_design', 1994, #188 ) ;
#68 = CC_DESIGN_DATE_AND_TIME_ASSIGNMENT ( #87, #17, ( #193 ) ) ;
#69 = SHAPE_DEFINITION_REPRESENTATION ( #56, #30 ) ;
#70 = PERSON_AND_ORGANIZATION ( #125, #150 ) ;
#71 = EDGE_CURVE ( 'NONE', #204, #239, #253, .T. ) ;
#72 = CLOSED_SHELL ( 'NONE', ( #129, #189, #104, #53, #14, #154, #131 ) ) ;
#73 = CARTESIAN_POINT ( 'NONE',  ( 6.250000000000000000, 7.654042494670957606E-16, 7.000000000000000000 ) ) ;
#74 = EDGE_LOOP ( 'NONE', ( #242, #218 ) ) ;
#75 = CYLINDRICAL_SURFACE ( 'NONE', #134, 6.250000000000000000 ) ;
#76 = APPROVAL_PERSON_ORGANIZATION ( #7, #16, #79 ) ;
#77 = FACE_OUTER_BOUND ( 'NONE', #80, .T. ) ;
#78 = DIRECTION ( 'NONE',  ( -0.000000000000000000, -0.000000000000000000, -1.000000000000000000 ) ) ;
#79 = APPROVAL_ROLE ( '' ) ;
#80 = EDGE_LOOP ( 'NONE', ( #177, #63 ) ) ;
#81 = DIRECTION ( 'NONE',  ( 0.000000000000000000, 0.000000000000000000, 1.000000000000000000 ) ) ;
#82 = CARTESIAN_POINT ( 'NONE',  ( 9.000000000000000000, 1.102182119232617714E-15, 7.000000000000000000 ) ) ;
#83 = CARTESIAN_POINT ( 'NONE',  ( 9.000000000000000000, 1.102182119232617714E-15, 0.000000000000000000 ) ) ;
#84 = DATE_TIME_ROLE ( 'creation_date' ) ;
#85 = DESIGN_CONTEXT ( 'detailed design', #188, 'design' ) ;
#86 = EDGE_CURVE ( 'NONE', #174, #195, #37, .T. ) ;
#87 = DATE_AND_TIME ( #36, #126 ) ;
#88 = AXIS2_PLACEMENT_3D ( 'NONE', #122, #99, #206 ) ;
#89 = AXIS2_PLACEMENT_3D ( 'NONE', #240, #61, #202 ) ;
#90 = DIRECTION ( 'NONE',  ( -0.000000000000000000, -0.000000000000000000, -1.000000000000000000 ) ) ;
#91 = ORIENTED_EDGE ( 'NONE', *, *, #32, .F. ) ;
#92 = PLANE ( 'NONE',  #236 ) ;
#93 = LINE ( 'NONE', #82, #54 ) ;
#94 = ORIENTED_EDGE ( 'NONE', *, *, #64, .T. ) ;
#95 = DIRECTION ( 'NONE',  ( -1.000000000000000000, 0.000000000000000000, 0.000000000000000000 ) ) ;
#96 = AXIS2_PLACEMENT_3D ( 'NONE', #139, #222, #45 ) ;
#97 = DIRECTION ( 'NONE',  ( 1.000000000000000000, 0.000000000000000000, 0.000000000000000000 ) ) ;
#98 = CARTESIAN_POINT ( 'NONE',  ( -6.250000000000000000, 0.000000000000000000, 132.0000000000000000 ) ) ;
#99 = DIRECTION ( 'NONE',  ( 0.000000000000000000, 0.000000000000000000, 1.000000000000000000 ) ) ;
#100 =( NAMED_UNIT ( * ) SI_UNIT ( $, .STERADIAN. ) SOLID_ANGLE_UNIT ( ) );
#101 = ORIENTED_EDGE ( 'NONE', *, *, #18, .T. ) ;
#102 = DIRECTION ( 'NONE',  ( 0.000000000000000000, 0.000000000000000000, 1.000000000000000000 ) ) ;
#103 = COORDINATED_UNIVERSAL_TIME_OFFSET ( 1, 0, .AHEAD. ) ;
#104 = ADVANCED_FACE ( 'NONE', ( #182 ), #185, .T. ) ;
#105 = VECTOR ( 'NONE', #78, 1000.000000000000000 ) ;
#106 = CC_DESIGN_APPROVAL ( #132, ( #193 ) ) ;
#107 = APPROVAL_STATUS ( 'not_yet_approved' ) ;
#108 = MANIFOLD_SOLID_BREP ( 'Pøidat vysunutím3', #72 ) ;
#109 = CC_DESIGN_APPROVAL ( #128, ( #35 ) ) ;
#110 = CIRCLE ( 'NONE', #233, 6.250000000000000000 ) ;
#111 = ORIENTED_EDGE ( 'NONE', *, *, #164, .T. ) ;
#112 = APPLICATION_CONTEXT ( 'configuration controlled 3d designs of mechanical parts and assemblies' ) ;
#113 = DIRECTION ( 'NONE',  ( 1.000000000000000000, 0.000000000000000000, 0.000000000000000000 ) ) ;
#114 = EDGE_LOOP ( 'NONE', ( #22, #201, #111, #237 ) ) ;
#115 = LINE ( 'NONE', #199, #105 ) ;
#116 = VERTEX_POINT ( 'NONE', #83 ) ;
#117 = CYLINDRICAL_SURFACE ( 'NONE', #214, 9.000000000000000000 ) ;
#118 = DIRECTION ( 'NONE',  ( 1.000000000000000000, 0.000000000000000000, 0.000000000000000000 ) ) ;
#119 = ORIENTED_EDGE ( 'NONE', *, *, #148, .F. ) ;
#120 = CARTESIAN_POINT ( 'NONE',  ( -9.000000000000000000, 0.000000000000000000, 0.000000000000000000 ) ) ;
#121 = CALENDAR_DATE ( 2022, 7, 7 ) ;
#122 = CARTESIAN_POINT ( 'NONE',  ( 0.000000000000000000, 0.000000000000000000, 132.0000000000000000 ) ) ;
#123 = LOCAL_TIME ( 19, 18, 41.00000000000000000, #51 ) ;
#124 = EDGE_CURVE ( 'NONE', #42, #39, #209, .T. ) ;
#125 = PERSON ( 'NEURÈENÝ', 'NEURÈENÝ', 'NEURÈENÝ', ('NEURÈENÝ'), ('NEURÈENÝ'), ('NEURÈENÝ') ) ;
#126 = LOCAL_TIME ( 19, 18, 41.00000000000000000, #130 ) ;
#127 = PERSON_AND_ORGANIZATION ( #125, #150 ) ;
#128 = APPROVAL ( #230, 'NEURÈENÝ' ) ;
#129 = ADVANCED_FACE ( 'NONE', ( #59 ), #29, .T. ) ;
#130 = COORDINATED_UNIVERSAL_TIME_OFFSET ( 1, 0, .AHEAD. ) ;
#131 = ADVANCED_FACE ( 'NONE', ( #146 ), #92, .T. ) ;
#132 = APPROVAL ( #107, 'NEURÈENÝ' ) ;
#133 = ORIENTED_EDGE ( 'NONE', *, *, #71, .T. ) ;
#134 = AXIS2_PLACEMENT_3D ( 'NONE', #160, #219, #245 ) ;
#135 = ORIENTED_EDGE ( 'NONE', *, *, #124, .T. ) ;
#136 = PRODUCT_RELATED_PRODUCT_CATEGORY ( 'detail', '', ( #221 ) ) ;
#137 = DIRECTION ( 'NONE',  ( 1.000000000000000000, 0.000000000000000000, 0.000000000000000000 ) ) ;
#138 = PERSON_AND_ORGANIZATION_ROLE ( 'design_owner' ) ;
#139 = CARTESIAN_POINT ( 'NONE',  ( 0.000000000000000000, 0.000000000000000000, 0.000000000000000000 ) ) ;
#140 = DIRECTION ( 'NONE',  ( 1.000000000000000000, 0.000000000000000000, 0.000000000000000000 ) ) ;
#141 = DATE_AND_TIME ( #62, #234 ) ;
#142 = ORIENTED_EDGE ( 'NONE', *, *, #86, .F. ) ;
#143 = CARTESIAN_POINT ( 'NONE',  ( 0.000000000000000000, 0.000000000000000000, 7.000000000000000000 ) ) ;
#144 = AXIS2_PLACEMENT_3D ( 'NONE', #52, #81, #113 ) ;
#145 = CARTESIAN_POINT ( 'NONE',  ( 0.000000000000000000, 0.000000000000000000, 7.000000000000000000 ) ) ;
#146 = FACE_OUTER_BOUND ( 'NONE', #74, .T. ) ;
#147 = APPROVAL_ROLE ( '' ) ;
#148 = EDGE_CURVE ( 'NONE', #39, #42, #110, .T. ) ;
#149 = EDGE_CURVE ( 'NONE', #159, #116, #3, .T. ) ;
#150 = ORGANIZATION ( 'NEURÈENÝ', 'NEURÈENÝ', '' ) ;
#151 = PERSON_AND_ORGANIZATION ( #125, #150 ) ;
#152 = PERSON_AND_ORGANIZATION ( #125, #150 ) ;
#153 = FACE_BOUND ( 'NONE', #49, .T. ) ;
#154 = ADVANCED_FACE ( 'NONE', ( #50 ), #75, .T. ) ;
#155 = CC_DESIGN_PERSON_AND_ORGANIZATION_ASSIGNMENT ( #151, #212, ( #193 ) ) ;
#156 = ORIENTED_EDGE ( 'NONE', *, *, #249, .T. ) ;
#157 = DIRECTION ( 'NONE',  ( -1.000000000000000000, 0.000000000000000000, 0.000000000000000000 ) ) ;
#158 = DIRECTION ( 'NONE',  ( 0.000000000000000000, 0.000000000000000000, 1.000000000000000000 ) ) ;
#159 = VERTEX_POINT ( 'NONE', #120 ) ;
#160 = CARTESIAN_POINT ( 'NONE',  ( 0.000000000000000000, 0.000000000000000000, 132.0000000000000000 ) ) ;
#161 = COORDINATED_UNIVERSAL_TIME_OFFSET ( 1, 0, .AHEAD. ) ;
#162 = ORIENTED_EDGE ( 'NONE', *, *, #223, .F. ) ;
#163 = CARTESIAN_POINT ( 'NONE',  ( 0.000000000000000000, 0.000000000000000000, 7.000000000000000000 ) ) ;
#164 = EDGE_CURVE ( 'NONE', #116, #159, #254, .T. ) ;
#165 = DIRECTION ( 'NONE',  ( 0.000000000000000000, 0.000000000000000000, 1.000000000000000000 ) ) ;
#166 = AXIS2_PLACEMENT_3D ( 'NONE', #20, #47, #238 ) ;
#167 = CIRCLE ( 'NONE', #248, 6.250000000000000000 ) ;
#168 = CC_DESIGN_PERSON_AND_ORGANIZATION_ASSIGNMENT ( #70, #55, ( #244 ) ) ;
#169 = EDGE_CURVE ( 'NONE', #195, #174, #167, .T. ) ;
#170 = DATE_AND_TIME ( #252, #171 ) ;
#171 = LOCAL_TIME ( 19, 18, 41.00000000000000000, #190 ) ;
#172 = CC_DESIGN_PERSON_AND_ORGANIZATION_ASSIGNMENT ( #31, #180, ( #35 ) ) ;
#173 = ORIENTED_EDGE ( 'NONE', *, *, #124, .F. ) ;
#174 = VERTEX_POINT ( 'NONE', #65 ) ;
#175 = CARTESIAN_POINT ( 'NONE',  ( 0.000000000000000000, 0.000000000000000000, 0.000000000000000000 ) ) ;
#176 =( LENGTH_UNIT ( ) NAMED_UNIT ( * ) SI_UNIT ( .MILLI., .METRE. ) );
#177 = ORIENTED_EDGE ( 'NONE', *, *, #149, .F. ) ;
#178 = AXIS2_PLACEMENT_3D ( 'NONE', #175, #102, #137 ) ;
#179 = DIRECTION ( 'NONE',  ( 1.000000000000000000, 0.000000000000000000, -0.000000000000000000 ) ) ;
#180 = PERSON_AND_ORGANIZATION_ROLE ( 'creator' ) ;
#181 = LINE ( 'NONE', #8, #227 ) ;
#182 = FACE_OUTER_BOUND ( 'NONE', #60, .T. ) ;
#183 = PERSON_AND_ORGANIZATION ( #125, #150 ) ;
#184 = EDGE_LOOP ( 'NONE', ( #156, #133 ) ) ;
#185 = CYLINDRICAL_SURFACE ( 'NONE', #192, 9.000000000000000000 ) ;
#186 = CC_DESIGN_SECURITY_CLASSIFICATION ( #193, ( #244 ) ) ;
#187 = MECHANICAL_CONTEXT ( 'NONE', #112, 'mechanical' ) ;
#188 = APPLICATION_CONTEXT ( 'configuration controlled 3d designs of mechanical parts and assemblies' ) ;
#189 = ADVANCED_FACE ( 'NONE', ( #224 ), #117, .T. ) ;
#190 = COORDINATED_UNIVERSAL_TIME_OFFSET ( 1, 0, .AHEAD. ) ;
#191 = APPROVAL_ROLE ( '' ) ;
#192 = AXIS2_PLACEMENT_3D ( 'NONE', #197, #66, #157 ) ;
#193 = SECURITY_CLASSIFICATION ( '', '', #15 ) ;
#194 = AXIS2_PLACEMENT_3D ( 'NONE', #11, #203, #118 ) ;
#195 = VERTEX_POINT ( 'NONE', #33 ) ;
#196 = ORIENTED_EDGE ( 'NONE', *, *, #169, .F. ) ;
#197 = CARTESIAN_POINT ( 'NONE',  ( 0.000000000000000000, 0.000000000000000000, 7.000000000000000000 ) ) ;
#198 = PLANE ( 'NONE',  #96 ) ;
#199 = CARTESIAN_POINT ( 'NONE',  ( -9.000000000000000000, 0.000000000000000000, 7.000000000000000000 ) ) ;
#200 = APPLICATION_PROTOCOL_DEFINITION ( 'international standard', 'config_control_design', 1994, #112 ) ;
#201 = ORIENTED_EDGE ( 'NONE', *, *, #223, .T. ) ;
#202 = DIRECTION ( 'NONE',  ( 1.000000000000000000, 0.000000000000000000, 0.000000000000000000 ) ) ;
#203 = DIRECTION ( 'NONE',  ( 0.000000000000000000, 0.000000000000000000, 1.000000000000000000 ) ) ;
#204 = VERTEX_POINT ( 'NONE', #21 ) ;
#205 = DIRECTION ( 'NONE',  ( -1.000000000000000000, 0.000000000000000000, 0.000000000000000000 ) ) ;
#206 = DIRECTION ( 'NONE',  ( 1.000000000000000000, 0.000000000000000000, 0.000000000000000000 ) ) ;
#207 = APPROVAL_STATUS ( 'not_yet_approved' ) ;
#208 = CIRCLE ( 'NONE', #228, 9.000000000000000000 ) ;
#209 = CIRCLE ( 'NONE', #166, 6.250000000000000000 ) ;
#210 = LOCAL_TIME ( 19, 18, 41.00000000000000000, #103 ) ;
#211 = PERSON_AND_ORGANIZATION_ROLE ( 'design_supplier' ) ;
#212 = PERSON_AND_ORGANIZATION_ROLE ( 'classification_officer' ) ;
#213 = CC_DESIGN_APPROVAL ( #16, ( #244 ) ) ;
#214 = AXIS2_PLACEMENT_3D ( 'NONE', #143, #229, #205 ) ;
#215 = APPROVAL_PERSON_ORGANIZATION ( #13, #128, #147 ) ;
#216 = EDGE_LOOP ( 'NONE', ( #196, #1, #135, #4 ) ) ;
#217 = DIRECTION ( 'NONE',  ( 0.000000000000000000, 0.000000000000000000, 1.000000000000000000 ) ) ;
#218 = ORIENTED_EDGE ( 'NONE', *, *, #169, .T. ) ;
#219 = DIRECTION ( 'NONE',  ( -0.000000000000000000, -0.000000000000000000, -1.000000000000000000 ) ) ;
#220 = DATE_AND_TIME ( #121, #123 ) ;
#221 = PRODUCT ( 'e39d', 'e39d', '', ( #187 ) ) ;
#222 = DIRECTION ( 'NONE',  ( 0.000000000000000000, 0.000000000000000000, 1.000000000000000000 ) ) ;
#223 = EDGE_CURVE ( 'NONE', #204, #116, #93, .T. ) ;
#224 = FACE_OUTER_BOUND ( 'NONE', #114, .T. ) ;
#225 = APPROVAL_DATE_TIME ( #141, #16 ) ;
#226 = EDGE_LOOP ( 'NONE', ( #91, #142, #101, #58 ) ) ;
#227 = VECTOR ( 'NONE', #57, 1000.000000000000000 ) ;
#228 = AXIS2_PLACEMENT_3D ( 'NONE', #145, #158, #97 ) ;
#229 = DIRECTION ( 'NONE',  ( -0.000000000000000000, -0.000000000000000000, -1.000000000000000000 ) ) ;
#230 = APPROVAL_STATUS ( 'not_yet_approved' ) ;
#231 = CARTESIAN_POINT ( 'NONE',  ( 0.000000000000000000, 0.000000000000000000, 132.0000000000000000 ) ) ;
#232 = APPROVAL_DATE_TIME ( #220, #128 ) ;
#233 = AXIS2_PLACEMENT_3D ( 'NONE', #5, #41, #27 ) ;
#234 = LOCAL_TIME ( 19, 18, 41.00000000000000000, #161 ) ;
#235 = FACE_OUTER_BOUND ( 'NONE', #184, .T. ) ;
#236 = AXIS2_PLACEMENT_3D ( 'NONE', #9, #217, #179 ) ;
#237 = ORIENTED_EDGE ( 'NONE', *, *, #64, .F. ) ;
#238 = DIRECTION ( 'NONE',  ( 1.000000000000000000, 0.000000000000000000, 0.000000000000000000 ) ) ;
#239 = VERTEX_POINT ( 'NONE', #246 ) ;
#240 = CARTESIAN_POINT ( 'NONE',  ( 0.000000000000000000, 0.000000000000000000, 0.000000000000000000 ) ) ;
#241 = DIRECTION ( 'NONE',  ( -0.000000000000000000, -0.000000000000000000, -1.000000000000000000 ) ) ;
#242 = ORIENTED_EDGE ( 'NONE', *, *, #86, .T. ) ;
#243 = DIRECTION ( 'NONE',  ( 1.000000000000000000, 0.000000000000000000, -0.000000000000000000 ) ) ;
#244 = PRODUCT_DEFINITION_FORMATION_WITH_SPECIFIED_SOURCE ( 'LIBOVOLNÝ', '', #221, .NOT_KNOWN. ) ;
#245 = DIRECTION ( 'NONE',  ( -1.000000000000000000, 0.000000000000000000, 0.000000000000000000 ) ) ;
#246 = CARTESIAN_POINT ( 'NONE',  ( -9.000000000000000000, 0.000000000000000000, 7.000000000000000000 ) ) ;
#247 = VECTOR ( 'NONE', #90, 1000.000000000000000 ) ;
#248 = AXIS2_PLACEMENT_3D ( 'NONE', #231, #165, #140 ) ;
#249 = EDGE_CURVE ( 'NONE', #239, #204, #208, .T. ) ;
#250 = APPROVAL_DATE_TIME ( #170, #132 ) ;
#251 =( GEOMETRIC_REPRESENTATION_CONTEXT ( 3 ) GLOBAL_UNCERTAINTY_ASSIGNED_CONTEXT ( ( #25 ) ) GLOBAL_UNIT_ASSIGNED_CONTEXT ( ( #176, #48, #100 ) ) REPRESENTATION_CONTEXT ( 'NONE', 'WORKASPACE' ) );
#252 = CALENDAR_DATE ( 2022, 7, 7 ) ;
#253 = CIRCLE ( 'NONE', #144, 9.000000000000000000 ) ;
#254 = CIRCLE ( 'NONE', #89, 9.000000000000000000 ) ;
#255 = CARTESIAN_POINT ( 'NONE',  ( -6.250000000000000000, 0.000000000000000000, 7.000000000000000000 ) ) ;
ENDSEC;
END-ISO-10303-21;
