ISO-10303-21;
HEADER;
FILE_DESCRIPTION (( 'STEP AP203' ),
    '1' );
FILE_NAME ('be60.STEP',
    '2023-02-13T11:34:11',
    ( '' ),
    ( '' ),
    'SwSTEP 2.0',
    'SolidWorks 2019',
    '' );
FILE_SCHEMA (( 'CONFIG_CONTROL_DESIGN' ));
ENDSEC;

DATA;
#1 = MECHANICAL_CONTEXT ( 'NONE', #69, 'mechanical' ) ;
#2 = VECTOR ( 'NONE', #150, 1000.000000000000000 ) ;
#3 = ORIENTED_EDGE ( 'NONE', *, *, #193, .T. ) ;
#4 = ORIENTED_EDGE ( 'NONE', *, *, #173, .F. ) ;
#5 = FACE_OUTER_BOUND ( 'NONE', #81, .T. ) ;
#6 = CARTESIAN_POINT ( 'NONE',  ( 0.000000000000000000, 0.000000000000000000, 7.000000000000000000 ) ) ;
#7 = LOCAL_TIME ( 12, 34, 11.00000000000000000, #115 ) ;
#8 = DIRECTION ( 'NONE',  ( 0.000000000000000000, 0.000000000000000000, 1.000000000000000000 ) ) ;
#9 = DIRECTION ( 'NONE',  ( -0.000000000000000000, -0.000000000000000000, -1.000000000000000000 ) ) ;
#10 = EDGE_CURVE ( 'NONE', #84, #168, #170, .T. ) ;
#11 = CARTESIAN_POINT ( 'NONE',  ( -6.750000000000000000, 0.000000000000000000, 200.0000000000000000 ) ) ;
#12 = CLOSED_SHELL ( 'NONE', ( #137, #140, #98, #59, #52, #49, #223 ) ) ;
#13 = APPROVAL_PERSON_ORGANIZATION ( #164, #120, #248 ) ;
#14 = DESIGN_CONTEXT ( 'detailed design', #63, 'design' ) ;
#15 = PLANE ( 'NONE',  #75 ) ;
#16 = APPROVAL_STATUS ( 'not_yet_approved' ) ;
#17 = FACE_OUTER_BOUND ( 'NONE', #235, .T. ) ;
#18 = APPROVAL_DATE_TIME ( #27, #148 ) ;
#19 = CARTESIAN_POINT ( 'NONE',  ( 0.000000000000000000, 0.000000000000000000, 0.000000000000000000 ) ) ;
#20 = AXIS2_PLACEMENT_3D ( 'NONE', #215, #220, #105 ) ;
#21 = PERSON_AND_ORGANIZATION ( #171, #221 ) ;
#22 = LINE ( 'NONE', #136, #76 ) ;
#23 = VECTOR ( 'NONE', #106, 1000.000000000000000 ) ;
#24 = EDGE_LOOP ( 'NONE', ( #214, #230, #79, #127 ) ) ;
#25 = AXIS2_PLACEMENT_3D ( 'NONE', #154, #253, #207 ) ;
#26 = EDGE_LOOP ( 'NONE', ( #229, #29, #50, #4 ) ) ;
#27 = DATE_AND_TIME ( #126, #134 ) ;
#28 = VERTEX_POINT ( 'NONE', #88 ) ;
#29 = ORIENTED_EDGE ( 'NONE', *, *, #226, .T. ) ;
#30 = DIRECTION ( 'NONE',  ( -1.000000000000000000, 0.000000000000000000, 0.000000000000000000 ) ) ;
#31 = MANIFOLD_SOLID_BREP ( 'Pøidat vysunutím3', #12 ) ;
#32 = LINE ( 'NONE', #199, #23 ) ;
#33 = CARTESIAN_POINT ( 'NONE',  ( 0.000000000000000000, 0.000000000000000000, 200.0000000000000000 ) ) ;
#34 = APPROVAL ( #121, 'NEURÈENÝ' ) ;
#35 = LINE ( 'NONE', #11, #117 ) ;
#36 = FACE_OUTER_BOUND ( 'NONE', #24, .T. ) ;
#37 = DIRECTION ( 'NONE',  ( -0.000000000000000000, -0.000000000000000000, -1.000000000000000000 ) ) ;
#38 = AXIS2_PLACEMENT_3D ( 'NONE', #225, #222, #57 ) ;
#39 = COORDINATED_UNIVERSAL_TIME_OFFSET ( 1, 0, .AHEAD. ) ;
#40 = CIRCLE ( 'NONE', #90, 6.750000000000000000 ) ;
#41 = CARTESIAN_POINT ( 'NONE',  ( 0.000000000000000000, 0.000000000000000000, 7.000000000000000000 ) ) ;
#42 = DATE_TIME_ROLE ( 'classification_date' ) ;
#43 = CARTESIAN_POINT ( 'NONE',  ( 0.000000000000000000, 0.000000000000000000, 200.0000000000000000 ) ) ;
#44 = PERSON_AND_ORGANIZATION_ROLE ( 'classification_officer' ) ;
#45 = DATE_TIME_ROLE ( 'creation_date' ) ;
#46 = ORIENTED_EDGE ( 'NONE', *, *, #226, .F. ) ;
#47 = AXIS2_PLACEMENT_3D ( 'NONE', #149, #177, #240 ) ;
#48 = ORIENTED_EDGE ( 'NONE', *, *, #182, .F. ) ;
#49 = ADVANCED_FACE ( 'NONE', ( #238 ), #145, .T. ) ;
#50 = ORIENTED_EDGE ( 'NONE', *, *, #217, .T. ) ;
#51 = DIRECTION ( 'NONE',  ( 1.000000000000000000, 0.000000000000000000, 0.000000000000000000 ) ) ;
#52 = ADVANCED_FACE ( 'NONE', ( #66 ), #68, .F. ) ;
#53 = CARTESIAN_POINT ( 'NONE',  ( -6.750000000000000000, 0.000000000000000000, 200.0000000000000000 ) ) ;
#54 = DIRECTION ( 'NONE',  ( 0.000000000000000000, 0.000000000000000000, 1.000000000000000000 ) ) ;
#55 = CIRCLE ( 'NONE', #82, 6.750000000000000000 ) ;
#56 = FACE_OUTER_BOUND ( 'NONE', #192, .T. ) ;
#57 = DIRECTION ( 'NONE',  ( 1.000000000000000000, 0.000000000000000000, 0.000000000000000000 ) ) ;
#58 =( NAMED_UNIT ( * ) PLANE_ANGLE_UNIT ( ) SI_UNIT ( $, .RADIAN. ) );
#59 = ADVANCED_FACE ( 'NONE', ( #174, #5 ), #71, .T. ) ;
#60 = CARTESIAN_POINT ( 'NONE',  ( 0.000000000000000000, 0.000000000000000000, 7.000000000000000000 ) ) ;
#61 =( NAMED_UNIT ( * ) SI_UNIT ( $, .STERADIAN. ) SOLID_ANGLE_UNIT ( ) );
#62 = APPLICATION_PROTOCOL_DEFINITION ( 'international standard', 'config_control_design', 1994, #63 ) ;
#63 = APPLICATION_CONTEXT ( 'configuration controlled 3d designs of mechanical parts and assemblies' ) ;
#64 = AXIS2_PLACEMENT_3D ( 'NONE', #19, #111, #93 ) ;
#65 = DIRECTION ( 'NONE',  ( 0.000000000000000000, 0.000000000000000000, 1.000000000000000000 ) ) ;
#66 = FACE_OUTER_BOUND ( 'NONE', #165, .T. ) ;
#67 = LOCAL_TIME ( 12, 34, 11.00000000000000000, #80 ) ;
#68 = PLANE ( 'NONE',  #20 ) ;
#69 = APPLICATION_CONTEXT ( 'configuration controlled 3d designs of mechanical parts and assemblies' ) ;
#70 = CYLINDRICAL_SURFACE ( 'NONE', #186, 11.00000000000000000 ) ;
#71 = PLANE ( 'NONE',  #138 ) ;
#72 = CARTESIAN_POINT ( 'NONE',  ( -11.00000000000000000, 0.000000000000000000, 7.000000000000000000 ) ) ;
#73 = PRODUCT_RELATED_PRODUCT_CATEGORY ( 'detail', '', ( #92 ) ) ;
#74 = DIRECTION ( 'NONE',  ( 0.000000000000000000, 0.000000000000000000, 1.000000000000000000 ) ) ;
#75 = AXIS2_PLACEMENT_3D ( 'NONE', #43, #119, #151 ) ;
#76 = VECTOR ( 'NONE', #37, 1000.000000000000000 ) ;
#77 = ORIENTED_EDGE ( 'NONE', *, *, #239, .F. ) ;
#78 = APPLICATION_PROTOCOL_DEFINITION ( 'international standard', 'config_control_design', 1994, #69 ) ;
#79 = ORIENTED_EDGE ( 'NONE', *, *, #182, .T. ) ;
#80 = COORDINATED_UNIVERSAL_TIME_OFFSET ( 1, 0, .AHEAD. ) ;
#81 = EDGE_LOOP ( 'NONE', ( #155, #104 ) ) ;
#82 = AXIS2_PLACEMENT_3D ( 'NONE', #200, #54, #132 ) ;
#83 = VERTEX_POINT ( 'NONE', #236 ) ;
#84 = VERTEX_POINT ( 'NONE', #53 ) ;
#85 = APPROVAL_PERSON_ORGANIZATION ( #190, #148, #191 ) ;
#86 = CARTESIAN_POINT ( 'NONE',  ( 6.750000000000000000, 8.266365894244634333E-16, 7.000000000000000000 ) ) ;
#87 = EDGE_CURVE ( 'NONE', #122, #83, #32, .T. ) ;
#88 = CARTESIAN_POINT ( 'NONE',  ( -11.00000000000000000, 0.000000000000000000, 0.000000000000000000 ) ) ;
#89 = DIRECTION ( 'NONE',  ( -0.000000000000000000, -0.000000000000000000, -1.000000000000000000 ) ) ;
#90 = AXIS2_PLACEMENT_3D ( 'NONE', #60, #74, #91 ) ;
#91 = DIRECTION ( 'NONE',  ( 1.000000000000000000, 0.000000000000000000, 0.000000000000000000 ) ) ;
#92 = PRODUCT ( 'be60', 'be60', '', ( #1 ) ) ;
#93 = DIRECTION ( 'NONE',  ( 1.000000000000000000, 0.000000000000000000, 0.000000000000000000 ) ) ;
#94 = AXIS2_PLACEMENT_3D ( 'NONE', #33, #9, #30 ) ;
#95 = EDGE_CURVE ( 'NONE', #250, #122, #197, .T. ) ;
#96 = PERSON_AND_ORGANIZATION ( #171, #221 ) ;
#97 = ORIENTED_EDGE ( 'NONE', *, *, #246, .F. ) ;
#98 = ADVANCED_FACE ( 'NONE', ( #36 ), #133, .T. ) ;
#99 = COORDINATED_UNIVERSAL_TIME_OFFSET ( 1, 0, .AHEAD. ) ;
#100 = CIRCLE ( 'NONE', #180, 11.00000000000000000 ) ;
#101 = VERTEX_POINT ( 'NONE', #86 ) ;
#102 = ORIENTED_EDGE ( 'NONE', *, *, #173, .T. ) ;
#103 = AXIS2_PLACEMENT_3D ( 'NONE', #124, #65, #51 ) ;
#104 = ORIENTED_EDGE ( 'NONE', *, *, #246, .T. ) ;
#105 = DIRECTION ( 'NONE',  ( 1.000000000000000000, 0.000000000000000000, -0.000000000000000000 ) ) ;
#106 = DIRECTION ( 'NONE',  ( -0.000000000000000000, -0.000000000000000000, -1.000000000000000000 ) ) ;
#107 = DIRECTION ( 'NONE',  ( -1.000000000000000000, 0.000000000000000000, 0.000000000000000000 ) ) ;
#108 = LOCAL_TIME ( 12, 34, 11.00000000000000000, #39 ) ;
#109 = CARTESIAN_POINT ( 'NONE',  ( 11.00000000000000000, 1.347111479062088405E-15, 7.000000000000000000 ) ) ;
#110 = DIRECTION ( 'NONE',  ( -0.000000000000000000, -0.000000000000000000, -1.000000000000000000 ) ) ;
#111 = DIRECTION ( 'NONE',  ( 0.000000000000000000, 0.000000000000000000, 1.000000000000000000 ) ) ;
#112 = LOCAL_TIME ( 12, 34, 11.00000000000000000, #209 ) ;
#113 = PERSON_AND_ORGANIZATION_ROLE ( 'design_supplier' ) ;
#114 = DIRECTION ( 'NONE',  ( 1.000000000000000000, 0.000000000000000000, 0.000000000000000000 ) ) ;
#115 = COORDINATED_UNIVERSAL_TIME_OFFSET ( 1, 0, .AHEAD. ) ;
#116 =( LENGTH_UNIT ( ) NAMED_UNIT ( * ) SI_UNIT ( .MILLI., .METRE. ) );
#117 = VECTOR ( 'NONE', #89, 1000.000000000000000 ) ;
#118 = CALENDAR_DATE ( 2023, 13, 2 ) ;
#119 = DIRECTION ( 'NONE',  ( 0.000000000000000000, 0.000000000000000000, 1.000000000000000000 ) ) ;
#120 = APPROVAL ( #16, 'NEURÈENÝ' ) ;
#121 = APPROVAL_STATUS ( 'not_yet_approved' ) ;
#122 = VERTEX_POINT ( 'NONE', #109 ) ;
#123 = CC_DESIGN_APPROVAL ( #34, ( #175 ) ) ;
#124 = CARTESIAN_POINT ( 'NONE',  ( 0.000000000000000000, 0.000000000000000000, 200.0000000000000000 ) ) ;
#125 = CC_DESIGN_PERSON_AND_ORGANIZATION_ASSIGNMENT ( #96, #194, ( #92 ) ) ;
#126 = CALENDAR_DATE ( 2023, 13, 2 ) ;
#127 = ORIENTED_EDGE ( 'NONE', *, *, #239, .T. ) ;
#128 = EDGE_LOOP ( 'NONE', ( #46, #212, #102, #3 ) ) ;
#129 = ORIENTED_EDGE ( 'NONE', *, *, #172, .T. ) ;
#130 = PRODUCT_DEFINITION_FORMATION_WITH_SPECIFIED_SOURCE ( 'LIBOVOLNÝ', '', #92, .NOT_KNOWN. ) ;
#131 = AXIS2_PLACEMENT_3D ( 'NONE', #241, #146, #107 ) ;
#132 = DIRECTION ( 'NONE',  ( 1.000000000000000000, 0.000000000000000000, 0.000000000000000000 ) ) ;
#133 = CYLINDRICAL_SURFACE ( 'NONE', #131, 11.00000000000000000 ) ;
#134 = LOCAL_TIME ( 12, 34, 11.00000000000000000, #99 ) ;
#135 = DATE_AND_TIME ( #118, #108 ) ;
#136 = CARTESIAN_POINT ( 'NONE',  ( 6.750000000000000000, 8.266365894244634333E-16, 200.0000000000000000 ) ) ;
#137 = ADVANCED_FACE ( 'NONE', ( #162 ), #216, .T. ) ;
#138 = AXIS2_PLACEMENT_3D ( 'NONE', #161, #196, #176 ) ;
#139 = CIRCLE ( 'NONE', #210, 6.750000000000000000 ) ;
#140 = ADVANCED_FACE ( 'NONE', ( #56 ), #70, .T. ) ;
#141 = APPROVAL_ROLE ( '' ) ;
#142 = ORIENTED_EDGE ( 'NONE', *, *, #198, .F. ) ;
#143 = ORIENTED_EDGE ( 'NONE', *, *, #198, .T. ) ;
#144 = DATE_AND_TIME ( #255, #112 ) ;
#145 = CYLINDRICAL_SURFACE ( 'NONE', #94, 6.750000000000000000 ) ;
#146 = DIRECTION ( 'NONE',  ( -0.000000000000000000, -0.000000000000000000, -1.000000000000000000 ) ) ;
#147 = DIRECTION ( 'NONE',  ( -1.000000000000000000, 0.000000000000000000, 0.000000000000000000 ) ) ;
#148 = APPROVAL ( #156, 'NEURÈENÝ' ) ;
#149 = CARTESIAN_POINT ( 'NONE',  ( 0.000000000000000000, 0.000000000000000000, 200.0000000000000000 ) ) ;
#150 = DIRECTION ( 'NONE',  ( -0.000000000000000000, -0.000000000000000000, -1.000000000000000000 ) ) ;
#151 = DIRECTION ( 'NONE',  ( 1.000000000000000000, 0.000000000000000000, -0.000000000000000000 ) ) ;
#152 = SECURITY_CLASSIFICATION ( '', '', #224 ) ;
#153 = AXIS2_PLACEMENT_3D ( 'NONE', #6, #8, #219 ) ;
#154 = CARTESIAN_POINT ( 'NONE',  ( 0.000000000000000000, 0.000000000000000000, 0.000000000000000000 ) ) ;
#155 = ORIENTED_EDGE ( 'NONE', *, *, #95, .T. ) ;
#156 = APPROVAL_STATUS ( 'not_yet_approved' ) ;
#157 = PERSON_AND_ORGANIZATION ( #171, #221 ) ;
#158 = ORIENTED_EDGE ( 'NONE', *, *, #217, .F. ) ;
#159 = EDGE_LOOP ( 'NONE', ( #232, #158 ) ) ;
#160 = CC_DESIGN_DATE_AND_TIME_ASSIGNMENT ( #135, #42, ( #152 ) ) ;
#161 = CARTESIAN_POINT ( 'NONE',  ( 0.000000000000000000, 0.000000000000000000, 7.000000000000000000 ) ) ;
#162 = FACE_OUTER_BOUND ( 'NONE', #26, .T. ) ;
#163 = CARTESIAN_POINT ( 'NONE',  ( 6.750000000000000000, 8.266365894244634333E-16, 200.0000000000000000 ) ) ;
#164 = PERSON_AND_ORGANIZATION ( #171, #221 ) ;
#165 = EDGE_LOOP ( 'NONE', ( #77, #142 ) ) ;
#166 =( GEOMETRIC_REPRESENTATION_CONTEXT ( 3 ) GLOBAL_UNCERTAINTY_ASSIGNED_CONTEXT ( ( #218 ) ) GLOBAL_UNIT_ASSIGNED_CONTEXT ( ( #116, #58, #61 ) ) REPRESENTATION_CONTEXT ( 'NONE', 'WORKASPACE' ) );
#167 = CIRCLE ( 'NONE', #64, 11.00000000000000000 ) ;
#168 = VERTEX_POINT ( 'NONE', #163 ) ;
#169 = ORIENTED_EDGE ( 'NONE', *, *, #87, .T. ) ;
#170 = CIRCLE ( 'NONE', #103, 6.750000000000000000 ) ;
#171 = PERSON ( 'NEURÈENÝ', 'NEURÈENÝ', 'NEURÈENÝ', ('NEURÈENÝ'), ('NEURÈENÝ'), ('NEURÈENÝ') ) ;
#172 = EDGE_CURVE ( 'NONE', #168, #84, #55, .T. ) ;
#173 = EDGE_CURVE ( 'NONE', #84, #195, #35, .T. ) ;
#174 = FACE_BOUND ( 'NONE', #159, .T. ) ;
#175 = PRODUCT_DEFINITION ( 'NEZNÁMÝ', '', #130, #14 ) ;
#176 = DIRECTION ( 'NONE',  ( 1.000000000000000000, 0.000000000000000000, -0.000000000000000000 ) ) ;
#177 = DIRECTION ( 'NONE',  ( -0.000000000000000000, -0.000000000000000000, -1.000000000000000000 ) ) ;
#178 = CARTESIAN_POINT ( 'NONE',  ( 0.000000000000000000, 0.000000000000000000, 7.000000000000000000 ) ) ;
#179 = CARTESIAN_POINT ( 'NONE',  ( -11.00000000000000000, 0.000000000000000000, 7.000000000000000000 ) ) ;
#180 = AXIS2_PLACEMENT_3D ( 'NONE', #189, #183, #201 ) ;
#181 = CC_DESIGN_PERSON_AND_ORGANIZATION_ASSIGNMENT ( #206, #188, ( #130 ) ) ;
#182 = EDGE_CURVE ( 'NONE', #250, #28, #242, .T. ) ;
#183 = DIRECTION ( 'NONE',  ( 0.000000000000000000, 0.000000000000000000, 1.000000000000000000 ) ) ;
#184 = SHAPE_DEFINITION_REPRESENTATION ( #251, #187 ) ;
#185 = CC_DESIGN_DATE_AND_TIME_ASSIGNMENT ( #208, #45, ( #175 ) ) ;
#186 = AXIS2_PLACEMENT_3D ( 'NONE', #178, #110, #147 ) ;
#187 = ADVANCED_BREP_SHAPE_REPRESENTATION ( 'be60', ( #31, #25 ), #166 ) ;
#188 = PERSON_AND_ORGANIZATION_ROLE ( 'creator' ) ;
#189 = CARTESIAN_POINT ( 'NONE',  ( 0.000000000000000000, 0.000000000000000000, 0.000000000000000000 ) ) ;
#190 = PERSON_AND_ORGANIZATION ( #171, #221 ) ;
#191 = APPROVAL_ROLE ( '' ) ;
#192 = EDGE_LOOP ( 'NONE', ( #97, #169, #143, #48 ) ) ;
#193 = EDGE_CURVE ( 'NONE', #195, #101, #139, .T. ) ;
#194 = PERSON_AND_ORGANIZATION_ROLE ( 'design_owner' ) ;
#195 = VERTEX_POINT ( 'NONE', #244 ) ;
#196 = DIRECTION ( 'NONE',  ( 0.000000000000000000, 0.000000000000000000, 1.000000000000000000 ) ) ;
#197 = CIRCLE ( 'NONE', #153, 11.00000000000000000 ) ;
#198 = EDGE_CURVE ( 'NONE', #83, #28, #100, .T. ) ;
#199 = CARTESIAN_POINT ( 'NONE',  ( 11.00000000000000000, 1.347111479062088405E-15, 7.000000000000000000 ) ) ;
#200 = CARTESIAN_POINT ( 'NONE',  ( 0.000000000000000000, 0.000000000000000000, 200.0000000000000000 ) ) ;
#201 = DIRECTION ( 'NONE',  ( 1.000000000000000000, 0.000000000000000000, 0.000000000000000000 ) ) ;
#202 = CC_DESIGN_PERSON_AND_ORGANIZATION_ASSIGNMENT ( #247, #44, ( #152 ) ) ;
#203 = CC_DESIGN_APPROVAL ( #148, ( #130 ) ) ;
#204 = CALENDAR_DATE ( 2023, 13, 2 ) ;
#205 = DIRECTION ( 'NONE',  ( 0.000000000000000000, 0.000000000000000000, 1.000000000000000000 ) ) ;
#206 = PERSON_AND_ORGANIZATION ( #171, #221 ) ;
#207 = DIRECTION ( 'NONE',  ( 1.000000000000000000, 0.000000000000000000, 0.000000000000000000 ) ) ;
#208 = DATE_AND_TIME ( #249, #67 ) ;
#209 = COORDINATED_UNIVERSAL_TIME_OFFSET ( 1, 0, .AHEAD. ) ;
#210 = AXIS2_PLACEMENT_3D ( 'NONE', #41, #205, #114 ) ;
#211 = APPROVAL_DATE_TIME ( #144, #34 ) ;
#212 = ORIENTED_EDGE ( 'NONE', *, *, #10, .F. ) ;
#213 = CC_DESIGN_PERSON_AND_ORGANIZATION_ASSIGNMENT ( #21, #113, ( #130 ) ) ;
#214 = ORIENTED_EDGE ( 'NONE', *, *, #87, .F. ) ;
#215 = CARTESIAN_POINT ( 'NONE',  ( 0.000000000000000000, 0.000000000000000000, 0.000000000000000000 ) ) ;
#216 = CYLINDRICAL_SURFACE ( 'NONE', #47, 6.750000000000000000 ) ;
#217 = EDGE_CURVE ( 'NONE', #101, #195, #40, .T. ) ;
#218 = UNCERTAINTY_MEASURE_WITH_UNIT (LENGTH_MEASURE( 1.000000000000000082E-05 ), #116, 'distance_accuracy_value', 'NONE');
#219 = DIRECTION ( 'NONE',  ( 1.000000000000000000, 0.000000000000000000, 0.000000000000000000 ) ) ;
#220 = DIRECTION ( 'NONE',  ( 0.000000000000000000, 0.000000000000000000, 1.000000000000000000 ) ) ;
#221 = ORGANIZATION ( 'NEURÈENÝ', 'NEURÈENÝ', '' ) ;
#222 = DIRECTION ( 'NONE',  ( 0.000000000000000000, 0.000000000000000000, 1.000000000000000000 ) ) ;
#223 = ADVANCED_FACE ( 'NONE', ( #17 ), #15, .T. ) ;
#224 = SECURITY_CLASSIFICATION_LEVEL ( 'unclassified' ) ;
#225 = CARTESIAN_POINT ( 'NONE',  ( 0.000000000000000000, 0.000000000000000000, 7.000000000000000000 ) ) ;
#226 = EDGE_CURVE ( 'NONE', #168, #101, #22, .T. ) ;
#227 = APPROVAL_DATE_TIME ( #243, #120 ) ;
#228 = APPROVAL_PERSON_ORGANIZATION ( #157, #34, #141 ) ;
#229 = ORIENTED_EDGE ( 'NONE', *, *, #172, .F. ) ;
#230 = ORIENTED_EDGE ( 'NONE', *, *, #95, .F. ) ;
#231 = PERSON_AND_ORGANIZATION ( #171, #221 ) ;
#232 = ORIENTED_EDGE ( 'NONE', *, *, #193, .F. ) ;
#233 = CC_DESIGN_PERSON_AND_ORGANIZATION_ASSIGNMENT ( #231, #234, ( #175 ) ) ;
#234 = PERSON_AND_ORGANIZATION_ROLE ( 'creator' ) ;
#235 = EDGE_LOOP ( 'NONE', ( #254, #129 ) ) ;
#236 = CARTESIAN_POINT ( 'NONE',  ( 11.00000000000000000, 1.347111479062088405E-15, 0.000000000000000000 ) ) ;
#237 = CIRCLE ( 'NONE', #38, 11.00000000000000000 ) ;
#238 = FACE_OUTER_BOUND ( 'NONE', #128, .T. ) ;
#239 = EDGE_CURVE ( 'NONE', #28, #83, #167, .T. ) ;
#240 = DIRECTION ( 'NONE',  ( -1.000000000000000000, 0.000000000000000000, 0.000000000000000000 ) ) ;
#241 = CARTESIAN_POINT ( 'NONE',  ( 0.000000000000000000, 0.000000000000000000, 7.000000000000000000 ) ) ;
#242 = LINE ( 'NONE', #72, #2 ) ;
#243 = DATE_AND_TIME ( #204, #7 ) ;
#244 = CARTESIAN_POINT ( 'NONE',  ( -6.750000000000000000, 0.000000000000000000, 7.000000000000000000 ) ) ;
#245 = CC_DESIGN_SECURITY_CLASSIFICATION ( #152, ( #130 ) ) ;
#246 = EDGE_CURVE ( 'NONE', #122, #250, #237, .T. ) ;
#247 = PERSON_AND_ORGANIZATION ( #171, #221 ) ;
#248 = APPROVAL_ROLE ( '' ) ;
#249 = CALENDAR_DATE ( 2023, 13, 2 ) ;
#250 = VERTEX_POINT ( 'NONE', #179 ) ;
#251 = PRODUCT_DEFINITION_SHAPE ( 'NONE', 'NONE',  #175 ) ;
#252 = CC_DESIGN_APPROVAL ( #120, ( #152 ) ) ;
#253 = DIRECTION ( 'NONE',  ( 0.000000000000000000, 0.000000000000000000, 1.000000000000000000 ) ) ;
#254 = ORIENTED_EDGE ( 'NONE', *, *, #10, .T. ) ;
#255 = CALENDAR_DATE ( 2023, 13, 2 ) ;
ENDSEC;
END-ISO-10303-21;
