ISO-10303-21;
HEADER;
FILE_DESCRIPTION (( 'STEP AP203' ),
    '1' );
FILE_NAME ('cc04.STEP',
    '2022-07-07T17:25:03',
    ( '' ),
    ( '' ),
    'SwSTEP 2.0',
    'SolidWorks 2019',
    '' );
FILE_SCHEMA (( 'CONFIG_CONTROL_DESIGN' ));
ENDSEC;

DATA;
#1 = AXIS2_PLACEMENT_3D ( 'NONE', #231, #150, #70 ) ;
#2 = CYLINDRICAL_SURFACE ( 'NONE', #190, 5.099999999999999645 ) ;
#3 = COORDINATED_UNIVERSAL_TIME_OFFSET ( 1, 0, .AHEAD. ) ;
#4 = ORIENTED_EDGE ( 'NONE', *, *, #254, .F. ) ;
#5 = CIRCLE ( 'NONE', #60, 5.099999999999999645 ) ;
#6 = LINE ( 'NONE', #239, #76 ) ;
#7 = DIRECTION ( 'NONE',  ( 0.000000000000000000, 0.000000000000000000, 1.000000000000000000 ) ) ;
#8 = DIRECTION ( 'NONE',  ( 0.000000000000000000, 0.000000000000000000, 1.000000000000000000 ) ) ;
#9 = APPLICATION_CONTEXT ( 'configuration controlled 3d designs of mechanical parts and assemblies' ) ;
#10 = DIRECTION ( 'NONE',  ( 1.000000000000000000, 0.000000000000000000, 0.000000000000000000 ) ) ;
#11 = DIRECTION ( 'NONE',  ( 0.000000000000000000, 0.000000000000000000, 1.000000000000000000 ) ) ;
#12 = CARTESIAN_POINT ( 'NONE',  ( -5.099999999999999645, 0.000000000000000000, 5.000000000000000000 ) ) ;
#13 = ADVANCED_BREP_SHAPE_REPRESENTATION ( 'cc04', ( #53, #135 ), #117 ) ;
#14 = ORIENTED_EDGE ( 'NONE', *, *, #211, .T. ) ;
#15 = ORIENTED_EDGE ( 'NONE', *, *, #208, .T. ) ;
#16 = CALENDAR_DATE ( 2022, 7, 7 ) ;
#17 = DATE_TIME_ROLE ( 'classification_date' ) ;
#18 = APPROVAL_PERSON_ORGANIZATION ( #255, #191, #179 ) ;
#19 = DATE_TIME_ROLE ( 'creation_date' ) ;
#20 = ORIENTED_EDGE ( 'NONE', *, *, #61, .T. ) ;
#21 = CARTESIAN_POINT ( 'NONE',  ( 5.099999999999999645, 6.245698675651500839E-16, 505.0000000000000000 ) ) ;
#22 = SECURITY_CLASSIFICATION_LEVEL ( 'unclassified' ) ;
#23 = EDGE_LOOP ( 'NONE', ( #159, #93 ) ) ;
#24 = AXIS2_PLACEMENT_3D ( 'NONE', #221, #202, #242 ) ;
#25 = PERSON_AND_ORGANIZATION ( #157, #133 ) ;
#26 = EDGE_LOOP ( 'NONE', ( #45, #134, #20, #175 ) ) ;
#27 = ADVANCED_FACE ( 'NONE', ( #68 ), #47, .F. ) ;
#28 = DIRECTION ( 'NONE',  ( 1.000000000000000000, 0.000000000000000000, -0.000000000000000000 ) ) ;
#29 = CARTESIAN_POINT ( 'NONE',  ( 0.000000000000000000, 0.000000000000000000, 5.000000000000000000 ) ) ;
#30 = AXIS2_PLACEMENT_3D ( 'NONE', #90, #11, #28 ) ;
#31 = PRODUCT_RELATED_PRODUCT_CATEGORY ( 'detail', '', ( #212 ) ) ;
#32 = DIRECTION ( 'NONE',  ( 1.000000000000000000, 0.000000000000000000, 0.000000000000000000 ) ) ;
#33 = DIRECTION ( 'NONE',  ( -0.000000000000000000, -0.000000000000000000, -1.000000000000000000 ) ) ;
#34 = DIRECTION ( 'NONE',  ( 1.000000000000000000, 0.000000000000000000, -0.000000000000000000 ) ) ;
#35 = ORIENTED_EDGE ( 'NONE', *, *, #108, .T. ) ;
#36 = CIRCLE ( 'NONE', #89, 8.000000000000000000 ) ;
#37 = EDGE_CURVE ( 'NONE', #101, #204, #144, .T. ) ;
#38 = CLOSED_SHELL ( 'NONE', ( #168, #164, #136, #119, #27, #97, #145 ) ) ;
#39 = PRODUCT_DEFINITION_SHAPE ( 'NONE', 'NONE',  #166 ) ;
#40 = APPLICATION_PROTOCOL_DEFINITION ( 'international standard', 'config_control_design', 1994, #92 ) ;
#41 = APPROVAL_ROLE ( '' ) ;
#42 = COORDINATED_UNIVERSAL_TIME_OFFSET ( 1, 0, .AHEAD. ) ;
#43 = DIRECTION ( 'NONE',  ( -0.000000000000000000, -0.000000000000000000, -1.000000000000000000 ) ) ;
#44 = SHAPE_DEFINITION_REPRESENTATION ( #39, #13 ) ;
#45 = ORIENTED_EDGE ( 'NONE', *, *, #37, .F. ) ;
#46 = CARTESIAN_POINT ( 'NONE',  ( 0.000000000000000000, 0.000000000000000000, 0.000000000000000000 ) ) ;
#47 = PLANE ( 'NONE',  #24 ) ;
#48 =( NAMED_UNIT ( * ) SI_UNIT ( $, .STERADIAN. ) SOLID_ANGLE_UNIT ( ) );
#49 = CC_DESIGN_APPROVAL ( #55, ( #166 ) ) ;
#50 = EDGE_CURVE ( 'NONE', #158, #203, #99, .T. ) ;
#51 = CARTESIAN_POINT ( 'NONE',  ( 5.099999999999999645, 6.245698675651500839E-16, 5.000000000000000000 ) ) ;
#52 = FACE_OUTER_BOUND ( 'NONE', #23, .T. ) ;
#53 = MANIFOLD_SOLID_BREP ( 'Pøidat vysunutím3', #38 ) ;
#54 = CARTESIAN_POINT ( 'NONE',  ( 0.000000000000000000, 0.000000000000000000, 5.000000000000000000 ) ) ;
#55 = APPROVAL ( #118, 'NEURÈENÝ' ) ;
#56 = VERTEX_POINT ( 'NONE', #199 ) ;
#57 = CC_DESIGN_SECURITY_CLASSIFICATION ( #210, ( #244 ) ) ;
#58 = APPROVAL_STATUS ( 'not_yet_approved' ) ;
#59 = MECHANICAL_CONTEXT ( 'NONE', #9, 'mechanical' ) ;
#60 = AXIS2_PLACEMENT_3D ( 'NONE', #246, #226, #88 ) ;
#61 = EDGE_CURVE ( 'NONE', #64, #125, #219, .T. ) ;
#62 = DIRECTION ( 'NONE',  ( -0.000000000000000000, -0.000000000000000000, -1.000000000000000000 ) ) ;
#63 = CALENDAR_DATE ( 2022, 7, 7 ) ;
#64 = VERTEX_POINT ( 'NONE', #140 ) ;
#65 = CC_DESIGN_DATE_AND_TIME_ASSIGNMENT ( #100, #19, ( #166 ) ) ;
#66 = CARTESIAN_POINT ( 'NONE',  ( 5.099999999999999645, 6.245698675651500839E-16, 505.0000000000000000 ) ) ;
#67 = PERSON_AND_ORGANIZATION_ROLE ( 'creator' ) ;
#68 = FACE_OUTER_BOUND ( 'NONE', #116, .T. ) ;
#69 = DIRECTION ( 'NONE',  ( -1.000000000000000000, 0.000000000000000000, 0.000000000000000000 ) ) ;
#70 = DIRECTION ( 'NONE',  ( 1.000000000000000000, 0.000000000000000000, 0.000000000000000000 ) ) ;
#71 = FACE_OUTER_BOUND ( 'NONE', #81, .T. ) ;
#72 = VECTOR ( 'NONE', #181, 1000.000000000000000 ) ;
#73 = ORIENTED_EDGE ( 'NONE', *, *, #211, .F. ) ;
#74 = APPROVAL ( #58, 'NEURÈENÝ' ) ;
#75 = CC_DESIGN_APPROVAL ( #191, ( #244 ) ) ;
#76 = VECTOR ( 'NONE', #115, 1000.000000000000000 ) ;
#77 = CALENDAR_DATE ( 2022, 7, 7 ) ;
#78 = PERSON_AND_ORGANIZATION ( #157, #133 ) ;
#79 = CARTESIAN_POINT ( 'NONE',  ( 0.000000000000000000, 0.000000000000000000, 505.0000000000000000 ) ) ;
#80 = PERSON_AND_ORGANIZATION ( #157, #133 ) ;
#81 = EDGE_LOOP ( 'NONE', ( #165, #85, #180, #14 ) ) ;
#82 = CC_DESIGN_PERSON_AND_ORGANIZATION_ASSIGNMENT ( #162, #124, ( #210 ) ) ;
#83 = CARTESIAN_POINT ( 'NONE',  ( -8.000000000000000000, 0.000000000000000000, 5.000000000000000000 ) ) ;
#84 = PERSON_AND_ORGANIZATION ( #157, #133 ) ;
#85 = ORIENTED_EDGE ( 'NONE', *, *, #213, .F. ) ;
#86 = AXIS2_PLACEMENT_3D ( 'NONE', #109, #8, #10 ) ;
#87 = CC_DESIGN_DATE_AND_TIME_ASSIGNMENT ( #198, #17, ( #210 ) ) ;
#88 = DIRECTION ( 'NONE',  ( 1.000000000000000000, 0.000000000000000000, 0.000000000000000000 ) ) ;
#89 = AXIS2_PLACEMENT_3D ( 'NONE', #131, #187, #228 ) ;
#90 = CARTESIAN_POINT ( 'NONE',  ( 0.000000000000000000, 0.000000000000000000, 505.0000000000000000 ) ) ;
#91 = DIRECTION ( 'NONE',  ( 0.000000000000000000, 0.000000000000000000, 1.000000000000000000 ) ) ;
#92 = APPLICATION_CONTEXT ( 'configuration controlled 3d designs of mechanical parts and assemblies' ) ;
#93 = ORIENTED_EDGE ( 'NONE', *, *, #254, .T. ) ;
#94 = FACE_OUTER_BOUND ( 'NONE', #114, .T. ) ;
#95 = PERSON_AND_ORGANIZATION ( #157, #133 ) ;
#96 = AXIS2_PLACEMENT_3D ( 'NONE', #54, #194, #34 ) ;
#97 = ADVANCED_FACE ( 'NONE', ( #178 ), #2, .T. ) ;
#98 = DATE_AND_TIME ( #16, #247 ) ;
#99 = LINE ( 'NONE', #83, #215 ) ;
#100 = DATE_AND_TIME ( #122, #227 ) ;
#101 = VERTEX_POINT ( 'NONE', #21 ) ;
#102 = ORIENTED_EDGE ( 'NONE', *, *, #249, .F. ) ;
#103 = PLANE ( 'NONE',  #30 ) ;
#104 = APPROVAL_PERSON_ORGANIZATION ( #238, #55, #41 ) ;
#105 = CARTESIAN_POINT ( 'NONE',  ( 0.000000000000000000, 0.000000000000000000, 505.0000000000000000 ) ) ;
#106 = VECTOR ( 'NONE', #62, 1000.000000000000000 ) ;
#107 =( LENGTH_UNIT ( ) NAMED_UNIT ( * ) SI_UNIT ( .MILLI., .METRE. ) );
#108 = EDGE_CURVE ( 'NONE', #216, #56, #6, .T. ) ;
#109 = CARTESIAN_POINT ( 'NONE',  ( 0.000000000000000000, 0.000000000000000000, 505.0000000000000000 ) ) ;
#110 = FACE_OUTER_BOUND ( 'NONE', #183, .T. ) ;
#111 = CARTESIAN_POINT ( 'NONE',  ( 0.000000000000000000, 0.000000000000000000, 5.000000000000000000 ) ) ;
#112 = AXIS2_PLACEMENT_3D ( 'NONE', #111, #155, #218 ) ;
#113 = ORIENTED_EDGE ( 'NONE', *, *, #129, .T. ) ;
#114 = EDGE_LOOP ( 'NONE', ( #127, #113 ) ) ;
#115 = DIRECTION ( 'NONE',  ( -0.000000000000000000, -0.000000000000000000, -1.000000000000000000 ) ) ;
#116 = EDGE_LOOP ( 'NONE', ( #73, #147 ) ) ;
#117 =( GEOMETRIC_REPRESENTATION_CONTEXT ( 3 ) GLOBAL_UNCERTAINTY_ASSIGNED_CONTEXT ( ( #137 ) ) GLOBAL_UNIT_ASSIGNED_CONTEXT ( ( #107, #167, #48 ) ) REPRESENTATION_CONTEXT ( 'NONE', 'WORKASPACE' ) );
#118 = APPROVAL_STATUS ( 'not_yet_approved' ) ;
#119 = ADVANCED_FACE ( 'NONE', ( #195, #94 ), #214, .T. ) ;
#120 = DATE_AND_TIME ( #176, #201 ) ;
#121 = CARTESIAN_POINT ( 'NONE',  ( -5.099999999999999645, 0.000000000000000000, 505.0000000000000000 ) ) ;
#122 = CALENDAR_DATE ( 2022, 7, 7 ) ;
#123 = DIRECTION ( 'NONE',  ( -1.000000000000000000, 0.000000000000000000, 0.000000000000000000 ) ) ;
#124 = PERSON_AND_ORGANIZATION_ROLE ( 'classification_officer' ) ;
#125 = VERTEX_POINT ( 'NONE', #12 ) ;
#126 = APPLICATION_PROTOCOL_DEFINITION ( 'international standard', 'config_control_design', 1994, #9 ) ;
#127 = ORIENTED_EDGE ( 'NONE', *, *, #213, .T. ) ;
#128 = DESIGN_CONTEXT ( 'detailed design', #92, 'design' ) ;
#129 = EDGE_CURVE ( 'NONE', #216, #158, #225, .T. ) ;
#130 = CARTESIAN_POINT ( 'NONE',  ( 0.000000000000000000, 0.000000000000000000, 5.000000000000000000 ) ) ;
#131 = CARTESIAN_POINT ( 'NONE',  ( 0.000000000000000000, 0.000000000000000000, 0.000000000000000000 ) ) ;
#132 = DIRECTION ( 'NONE',  ( 1.000000000000000000, 0.000000000000000000, 0.000000000000000000 ) ) ;
#133 = ORGANIZATION ( 'NEURÈENÝ', 'NEURÈENÝ', '' ) ;
#134 = ORIENTED_EDGE ( 'NONE', *, *, #251, .F. ) ;
#135 = AXIS2_PLACEMENT_3D ( 'NONE', #46, #7, #200 ) ;
#136 = ADVANCED_FACE ( 'NONE', ( #71 ), #185, .T. ) ;
#137 = UNCERTAINTY_MEASURE_WITH_UNIT (LENGTH_MEASURE( 1.000000000000000082E-05 ), #107, 'distance_accuracy_value', 'NONE');
#138 = PERSON_AND_ORGANIZATION_ROLE ( 'creator' ) ;
#139 = AXIS2_PLACEMENT_3D ( 'NONE', #130, #33, #69 ) ;
#140 = CARTESIAN_POINT ( 'NONE',  ( -5.099999999999999645, 0.000000000000000000, 505.0000000000000000 ) ) ;
#141 = APPROVAL_DATE_TIME ( #224, #74 ) ;
#142 = CIRCLE ( 'NONE', #188, 5.099999999999999645 ) ;
#143 = ORIENTED_EDGE ( 'NONE', *, *, #151, .F. ) ;
#144 = LINE ( 'NONE', #66, #72 ) ;
#145 = ADVANCED_FACE ( 'NONE', ( #52 ), #103, .T. ) ;
#146 = APPROVAL_ROLE ( '' ) ;
#147 = ORIENTED_EDGE ( 'NONE', *, *, #208, .F. ) ;
#148 = CC_DESIGN_PERSON_AND_ORGANIZATION_ASSIGNMENT ( #80, #243, ( #244 ) ) ;
#149 = CIRCLE ( 'NONE', #1, 8.000000000000000000 ) ;
#150 = DIRECTION ( 'NONE',  ( 0.000000000000000000, 0.000000000000000000, 1.000000000000000000 ) ) ;
#151 = EDGE_CURVE ( 'NONE', #204, #125, #5, .T. ) ;
#152 = CARTESIAN_POINT ( 'NONE',  ( -8.000000000000000000, 0.000000000000000000, 5.000000000000000000 ) ) ;
#153 = CYLINDRICAL_SURFACE ( 'NONE', #174, 5.099999999999999645 ) ;
#154 = CARTESIAN_POINT ( 'NONE',  ( 0.000000000000000000, 0.000000000000000000, 5.000000000000000000 ) ) ;
#155 = DIRECTION ( 'NONE',  ( 0.000000000000000000, 0.000000000000000000, 1.000000000000000000 ) ) ;
#156 = CC_DESIGN_APPROVAL ( #74, ( #210 ) ) ;
#157 = PERSON ( 'NEURÈENÝ', 'NEURÈENÝ', 'NEURÈENÝ', ('NEURÈENÝ'), ('NEURÈENÝ'), ('NEURÈENÝ') ) ;
#158 = VERTEX_POINT ( 'NONE', #152 ) ;
#159 = ORIENTED_EDGE ( 'NONE', *, *, #251, .T. ) ;
#160 = CIRCLE ( 'NONE', #252, 8.000000000000000000 ) ;
#161 = DIRECTION ( 'NONE',  ( -0.000000000000000000, -0.000000000000000000, -1.000000000000000000 ) ) ;
#162 = PERSON_AND_ORGANIZATION ( #157, #133 ) ;
#163 = ORIENTED_EDGE ( 'NONE', *, *, #129, .F. ) ;
#164 = ADVANCED_FACE ( 'NONE', ( #171 ), #248, .T. ) ;
#165 = ORIENTED_EDGE ( 'NONE', *, *, #108, .F. ) ;
#166 = PRODUCT_DEFINITION ( 'NEZNÁMÝ', '', #244, #128 ) ;
#167 =( NAMED_UNIT ( * ) PLANE_ANGLE_UNIT ( ) SI_UNIT ( $, .RADIAN. ) );
#168 = ADVANCED_FACE ( 'NONE', ( #110 ), #153, .T. ) ;
#169 = DIRECTION ( 'NONE',  ( -0.000000000000000000, -0.000000000000000000, -1.000000000000000000 ) ) ;
#170 = CC_DESIGN_PERSON_AND_ORGANIZATION_ASSIGNMENT ( #95, #67, ( #244 ) ) ;
#171 = FACE_OUTER_BOUND ( 'NONE', #192, .T. ) ;
#172 = CIRCLE ( 'NONE', #217, 5.099999999999999645 ) ;
#173 = DIRECTION ( 'NONE',  ( -1.000000000000000000, 0.000000000000000000, 0.000000000000000000 ) ) ;
#174 = AXIS2_PLACEMENT_3D ( 'NONE', #184, #205, #207 ) ;
#175 = ORIENTED_EDGE ( 'NONE', *, *, #249, .T. ) ;
#176 = CALENDAR_DATE ( 2022, 7, 7 ) ;
#177 = COORDINATED_UNIVERSAL_TIME_OFFSET ( 1, 0, .AHEAD. ) ;
#178 = FACE_OUTER_BOUND ( 'NONE', #26, .T. ) ;
#179 = APPROVAL_ROLE ( '' ) ;
#180 = ORIENTED_EDGE ( 'NONE', *, *, #50, .T. ) ;
#181 = DIRECTION ( 'NONE',  ( -0.000000000000000000, -0.000000000000000000, -1.000000000000000000 ) ) ;
#182 = APPROVAL_DATE_TIME ( #98, #55 ) ;
#183 = EDGE_LOOP ( 'NONE', ( #4, #233, #245, #223 ) ) ;
#184 = CARTESIAN_POINT ( 'NONE',  ( 0.000000000000000000, 0.000000000000000000, 505.0000000000000000 ) ) ;
#185 = CYLINDRICAL_SURFACE ( 'NONE', #139, 8.000000000000000000 ) ;
#186 = DIRECTION ( 'NONE',  ( 0.000000000000000000, 0.000000000000000000, 1.000000000000000000 ) ) ;
#187 = DIRECTION ( 'NONE',  ( 0.000000000000000000, 0.000000000000000000, 1.000000000000000000 ) ) ;
#188 = AXIS2_PLACEMENT_3D ( 'NONE', #29, #186, #189 ) ;
#189 = DIRECTION ( 'NONE',  ( 1.000000000000000000, 0.000000000000000000, 0.000000000000000000 ) ) ;
#190 = AXIS2_PLACEMENT_3D ( 'NONE', #79, #161, #123 ) ;
#191 = APPROVAL ( #237, 'NEURÈENÝ' ) ;
#192 = EDGE_LOOP ( 'NONE', ( #163, #35, #15, #234 ) ) ;
#193 = APPROVAL_PERSON_ORGANIZATION ( #84, #74, #146 ) ;
#194 = DIRECTION ( 'NONE',  ( 0.000000000000000000, 0.000000000000000000, 1.000000000000000000 ) ) ;
#195 = FACE_BOUND ( 'NONE', #241, .T. ) ;
#196 = LOCAL_TIME ( 19, 25, 3.000000000000000000, #240 ) ;
#197 = APPROVAL_DATE_TIME ( #120, #191 ) ;
#198 = DATE_AND_TIME ( #77, #196 ) ;
#199 = CARTESIAN_POINT ( 'NONE',  ( 8.000000000000000000, 9.797174393178825657E-16, 0.000000000000000000 ) ) ;
#200 = DIRECTION ( 'NONE',  ( 1.000000000000000000, 0.000000000000000000, 0.000000000000000000 ) ) ;
#201 = LOCAL_TIME ( 19, 25, 3.000000000000000000, #3 ) ;
#202 = DIRECTION ( 'NONE',  ( 0.000000000000000000, 0.000000000000000000, 1.000000000000000000 ) ) ;
#203 = VERTEX_POINT ( 'NONE', #229 ) ;
#204 = VERTEX_POINT ( 'NONE', #51 ) ;
#205 = DIRECTION ( 'NONE',  ( -0.000000000000000000, -0.000000000000000000, -1.000000000000000000 ) ) ;
#206 = DIRECTION ( 'NONE',  ( 0.000000000000000000, 0.000000000000000000, 1.000000000000000000 ) ) ;
#207 = DIRECTION ( 'NONE',  ( -1.000000000000000000, 0.000000000000000000, 0.000000000000000000 ) ) ;
#208 = EDGE_CURVE ( 'NONE', #56, #203, #149, .T. ) ;
#209 = CARTESIAN_POINT ( 'NONE',  ( 0.000000000000000000, 0.000000000000000000, 5.000000000000000000 ) ) ;
#210 = SECURITY_CLASSIFICATION ( '', '', #22 ) ;
#211 = EDGE_CURVE ( 'NONE', #203, #56, #36, .T. ) ;
#212 = PRODUCT ( 'cc04', 'cc04', '', ( #59 ) ) ;
#213 = EDGE_CURVE ( 'NONE', #158, #216, #160, .T. ) ;
#214 = PLANE ( 'NONE',  #96 ) ;
#215 = VECTOR ( 'NONE', #43, 1000.000000000000000 ) ;
#216 = VERTEX_POINT ( 'NONE', #250 ) ;
#217 = AXIS2_PLACEMENT_3D ( 'NONE', #105, #91, #32 ) ;
#218 = DIRECTION ( 'NONE',  ( 1.000000000000000000, 0.000000000000000000, 0.000000000000000000 ) ) ;
#219 = LINE ( 'NONE', #121, #106 ) ;
#220 = COORDINATED_UNIVERSAL_TIME_OFFSET ( 1, 0, .AHEAD. ) ;
#221 = CARTESIAN_POINT ( 'NONE',  ( 0.000000000000000000, 0.000000000000000000, 0.000000000000000000 ) ) ;
#222 = PERSON_AND_ORGANIZATION_ROLE ( 'design_owner' ) ;
#223 = ORIENTED_EDGE ( 'NONE', *, *, #61, .F. ) ;
#224 = DATE_AND_TIME ( #63, #236 ) ;
#225 = CIRCLE ( 'NONE', #112, 8.000000000000000000 ) ;
#226 = DIRECTION ( 'NONE',  ( 0.000000000000000000, 0.000000000000000000, 1.000000000000000000 ) ) ;
#227 = LOCAL_TIME ( 19, 25, 3.000000000000000000, #220 ) ;
#228 = DIRECTION ( 'NONE',  ( 1.000000000000000000, 0.000000000000000000, 0.000000000000000000 ) ) ;
#229 = CARTESIAN_POINT ( 'NONE',  ( -8.000000000000000000, 0.000000000000000000, 0.000000000000000000 ) ) ;
#230 = AXIS2_PLACEMENT_3D ( 'NONE', #154, #169, #173 ) ;
#231 = CARTESIAN_POINT ( 'NONE',  ( 0.000000000000000000, 0.000000000000000000, 0.000000000000000000 ) ) ;
#232 = CIRCLE ( 'NONE', #86, 5.099999999999999645 ) ;
#233 = ORIENTED_EDGE ( 'NONE', *, *, #37, .T. ) ;
#234 = ORIENTED_EDGE ( 'NONE', *, *, #50, .F. ) ;
#235 = CC_DESIGN_PERSON_AND_ORGANIZATION_ASSIGNMENT ( #78, #138, ( #166 ) ) ;
#236 = LOCAL_TIME ( 19, 25, 3.000000000000000000, #177 ) ;
#237 = APPROVAL_STATUS ( 'not_yet_approved' ) ;
#238 = PERSON_AND_ORGANIZATION ( #157, #133 ) ;
#239 = CARTESIAN_POINT ( 'NONE',  ( 8.000000000000000000, 9.797174393178825657E-16, 5.000000000000000000 ) ) ;
#240 = COORDINATED_UNIVERSAL_TIME_OFFSET ( 1, 0, .AHEAD. ) ;
#241 = EDGE_LOOP ( 'NONE', ( #102, #143 ) ) ;
#242 = DIRECTION ( 'NONE',  ( 1.000000000000000000, 0.000000000000000000, -0.000000000000000000 ) ) ;
#243 = PERSON_AND_ORGANIZATION_ROLE ( 'design_supplier' ) ;
#244 = PRODUCT_DEFINITION_FORMATION_WITH_SPECIFIED_SOURCE ( 'LIBOVOLNÝ', '', #212, .NOT_KNOWN. ) ;
#245 = ORIENTED_EDGE ( 'NONE', *, *, #151, .T. ) ;
#246 = CARTESIAN_POINT ( 'NONE',  ( 0.000000000000000000, 0.000000000000000000, 5.000000000000000000 ) ) ;
#247 = LOCAL_TIME ( 19, 25, 3.000000000000000000, #42 ) ;
#248 = CYLINDRICAL_SURFACE ( 'NONE', #230, 8.000000000000000000 ) ;
#249 = EDGE_CURVE ( 'NONE', #125, #204, #142, .T. ) ;
#250 = CARTESIAN_POINT ( 'NONE',  ( 8.000000000000000000, 9.797174393178825657E-16, 5.000000000000000000 ) ) ;
#251 = EDGE_CURVE ( 'NONE', #64, #101, #172, .T. ) ;
#252 = AXIS2_PLACEMENT_3D ( 'NONE', #209, #206, #132 ) ;
#253 = CC_DESIGN_PERSON_AND_ORGANIZATION_ASSIGNMENT ( #25, #222, ( #212 ) ) ;
#254 = EDGE_CURVE ( 'NONE', #101, #64, #232, .T. ) ;
#255 = PERSON_AND_ORGANIZATION ( #157, #133 ) ;
ENDSEC;
END-ISO-10303-21;
