ISO-10303-21;
HEADER;
FILE_DESCRIPTION (( 'STEP AP203' ),
    '1' );
FILE_NAME ('2983.STEP',
    '2023-02-13T14:52:47',
    ( '' ),
    ( '' ),
    'SwSTEP 2.0',
    'SolidWorks 2019',
    '' );
FILE_SCHEMA (( 'CONFIG_CONTROL_DESIGN' ));
ENDSEC;

DATA;
#1 = DATE_TIME_ROLE ( 'creation_date' ) ;
#2 = CYLINDRICAL_SURFACE ( 'NONE', #9, 6.000000000000000888 ) ;
#3 = APPROVAL_STATUS ( 'not_yet_approved' ) ;
#4 = CC_DESIGN_PERSON_AND_ORGANIZATION_ASSIGNMENT ( #8, #181, ( #253 ) ) ;
#5 = FACE_OUTER_BOUND ( 'NONE', #176, .T. ) ;
#6 =( NAMED_UNIT ( * ) SI_UNIT ( $, .STERADIAN. ) SOLID_ANGLE_UNIT ( ) );
#7 = CARTESIAN_POINT ( 'NONE',  ( 0.000000000000000000, 0.000000000000000000, 5.000000000000000000 ) ) ;
#8 = PERSON_AND_ORGANIZATION ( #35, #240 ) ;
#9 = AXIS2_PLACEMENT_3D ( 'NONE', #222, #238, #56 ) ;
#10 = APPROVAL ( #3, 'NEURÈENÝ' ) ;
#11 = LINE ( 'NONE', #224, #165 ) ;
#12 = DATE_AND_TIME ( #49, #106 ) ;
#13 = AXIS2_PLACEMENT_3D ( 'NONE', #255, #157, #173 ) ;
#14 = CYLINDRICAL_SURFACE ( 'NONE', #199, 6.000000000000000888 ) ;
#15 = ORIENTED_EDGE ( 'NONE', *, *, #225, .F. ) ;
#16 = EDGE_CURVE ( 'NONE', #174, #50, #126, .T. ) ;
#17 = ORIENTED_EDGE ( 'NONE', *, *, #220, .T. ) ;
#18 = PLANE ( 'NONE',  #22 ) ;
#19 = EDGE_LOOP ( 'NONE', ( #15, #194, #152, #74 ) ) ;
#20 = DIRECTION ( 'NONE',  ( 1.000000000000000000, 0.000000000000000000, 0.000000000000000000 ) ) ;
#21 = CARTESIAN_POINT ( 'NONE',  ( 0.000000000000000000, 0.000000000000000000, 5.000000000000000000 ) ) ;
#22 = AXIS2_PLACEMENT_3D ( 'NONE', #21, #114, #200 ) ;
#23 = MECHANICAL_CONTEXT ( 'NONE', #54, 'mechanical' ) ;
#24 = ADVANCED_FACE ( 'NONE', ( #142 ), #2, .T. ) ;
#25 = CLOSED_SHELL ( 'NONE', ( #166, #180, #24, #232, #47, #186, #115 ) ) ;
#26 = DIRECTION ( 'NONE',  ( -0.000000000000000000, -0.000000000000000000, -1.000000000000000000 ) ) ;
#27 = PERSON_AND_ORGANIZATION ( #35, #240 ) ;
#28 = LOCAL_TIME ( 15, 52, 47.00000000000000000, #102 ) ;
#29 = PERSON_AND_ORGANIZATION_ROLE ( 'design_supplier' ) ;
#30 = CARTESIAN_POINT ( 'NONE',  ( 0.000000000000000000, 0.000000000000000000, 5.000000000000000000 ) ) ;
#31 = CARTESIAN_POINT ( 'NONE',  ( -6.000000000000000888, 0.000000000000000000, 0.000000000000000000 ) ) ;
#32 = AXIS2_PLACEMENT_3D ( 'NONE', #121, #209, #46 ) ;
#33 = CARTESIAN_POINT ( 'NONE',  ( 6.000000000000000888, 7.347880794884120722E-16, 5.000000000000000000 ) ) ;
#34 = ORIENTED_EDGE ( 'NONE', *, *, #52, .F. ) ;
#35 = PERSON ( 'NEURÈENÝ', 'NEURÈENÝ', 'NEURÈENÝ', ('NEURÈENÝ'), ('NEURÈENÝ'), ('NEURÈENÝ') ) ;
#36 = VERTEX_POINT ( 'NONE', #94 ) ;
#37 = APPROVAL ( #117, 'NEURÈENÝ' ) ;
#38 = ORIENTED_EDGE ( 'NONE', *, *, #162, .F. ) ;
#39 = CARTESIAN_POINT ( 'NONE',  ( 0.000000000000000000, 0.000000000000000000, 0.000000000000000000 ) ) ;
#40 = PRODUCT_DEFINITION_FORMATION_WITH_SPECIFIED_SOURCE ( 'LIBOVOLNÝ', '', #93, .NOT_KNOWN. ) ;
#41 = APPLICATION_PROTOCOL_DEFINITION ( 'international standard', 'config_control_design', 1994, #246 ) ;
#42 = EDGE_CURVE ( 'NONE', #248, #158, #156, .T. ) ;
#43 = LOCAL_TIME ( 15, 52, 47.00000000000000000, #80 ) ;
#44 = DIRECTION ( 'NONE',  ( -0.000000000000000000, -0.000000000000000000, -1.000000000000000000 ) ) ;
#45 = CARTESIAN_POINT ( 'NONE',  ( 0.000000000000000000, 0.000000000000000000, 0.000000000000000000 ) ) ;
#46 = DIRECTION ( 'NONE',  ( 1.000000000000000000, 0.000000000000000000, -0.000000000000000000 ) ) ;
#47 = ADVANCED_FACE ( 'NONE', ( #75 ), #58, .F. ) ;
#48 = CC_DESIGN_APPROVAL ( #10, ( #253 ) ) ;
#49 = CALENDAR_DATE ( 2023, 13, 2 ) ;
#50 = VERTEX_POINT ( 'NONE', #60 ) ;
#51 = EDGE_LOOP ( 'NONE', ( #231, #17 ) ) ;
#52 = EDGE_CURVE ( 'NONE', #215, #158, #11, .T. ) ;
#53 = LOCAL_TIME ( 15, 52, 47.00000000000000000, #97 ) ;
#54 = APPLICATION_CONTEXT ( 'configuration controlled 3d designs of mechanical parts and assemblies' ) ;
#55 = EDGE_LOOP ( 'NONE', ( #72, #137, #195, #34 ) ) ;
#56 = DIRECTION ( 'NONE',  ( -1.000000000000000000, 0.000000000000000000, 0.000000000000000000 ) ) ;
#57 = FACE_BOUND ( 'NONE', #112, .T. ) ;
#58 = PLANE ( 'NONE',  #211 ) ;
#59 = DATE_AND_TIME ( #164, #53 ) ;
#60 = CARTESIAN_POINT ( 'NONE',  ( 3.250000000000000444, 3.980102097228898231E-16, 5.000000000000000000 ) ) ;
#61 = AXIS2_PLACEMENT_3D ( 'NONE', #210, #213, #125 ) ;
#62 = DIRECTION ( 'NONE',  ( 0.000000000000000000, 0.000000000000000000, 1.000000000000000000 ) ) ;
#63 = FACE_OUTER_BOUND ( 'NONE', #216, .T. ) ;
#64 = PRODUCT_RELATED_PRODUCT_CATEGORY ( 'detail', '', ( #93 ) ) ;
#65 = FACE_OUTER_BOUND ( 'NONE', #55, .T. ) ;
#66 = DATE_AND_TIME ( #169, #43 ) ;
#67 = LINE ( 'NONE', #33, #178 ) ;
#68 = EDGE_LOOP ( 'NONE', ( #70, #138 ) ) ;
#69 = PRODUCT_DEFINITION_SHAPE ( 'NONE', 'NONE',  #253 ) ;
#70 = ORIENTED_EDGE ( 'NONE', *, *, #91, .F. ) ;
#71 = AXIS2_PLACEMENT_3D ( 'NONE', #205, #145, #192 ) ;
#72 = ORIENTED_EDGE ( 'NONE', *, *, #220, .F. ) ;
#73 = CC_DESIGN_APPROVAL ( #37, ( #40 ) ) ;
#74 = ORIENTED_EDGE ( 'NONE', *, *, #91, .T. ) ;
#75 = FACE_OUTER_BOUND ( 'NONE', #68, .T. ) ;
#76 = CARTESIAN_POINT ( 'NONE',  ( 6.000000000000000888, 7.347880794884120722E-16, 0.000000000000000000 ) ) ;
#77 = MANIFOLD_SOLID_BREP ( 'Pøidat vysunutím3', #25 ) ;
#78 = CC_DESIGN_PERSON_AND_ORGANIZATION_ASSIGNMENT ( #146, #107, ( #40 ) ) ;
#79 = PERSON_AND_ORGANIZATION ( #35, #240 ) ;
#80 = COORDINATED_UNIVERSAL_TIME_OFFSET ( 1, 0, .AHEAD. ) ;
#81 = APPROVAL_ROLE ( '' ) ;
#82 = DIRECTION ( 'NONE',  ( -1.000000000000000000, 0.000000000000000000, 0.000000000000000000 ) ) ;
#83 = AXIS2_PLACEMENT_3D ( 'NONE', #7, #242, #84 ) ;
#84 = DIRECTION ( 'NONE',  ( 1.000000000000000000, 0.000000000000000000, 0.000000000000000000 ) ) ;
#85 = FACE_OUTER_BOUND ( 'NONE', #90, .T. ) ;
#86 = PERSON_AND_ORGANIZATION_ROLE ( 'classification_officer' ) ;
#87 = LINE ( 'NONE', #189, #143 ) ;
#88 = AXIS2_PLACEMENT_3D ( 'NONE', #45, #119, #100 ) ;
#89 = CARTESIAN_POINT ( 'NONE',  ( -3.250000000000000444, 0.000000000000000000, 315.0000000000000000 ) ) ;
#90 = EDGE_LOOP ( 'NONE', ( #133, #237, #132, #236 ) ) ;
#91 = EDGE_CURVE ( 'NONE', #158, #248, #182, .T. ) ;
#92 = DESIGN_CONTEXT ( 'detailed design', #246, 'design' ) ;
#93 = PRODUCT ( '2983', '2983', '', ( #23 ) ) ;
#94 = CARTESIAN_POINT ( 'NONE',  ( 3.250000000000000444, 3.980102097228898231E-16, 315.0000000000000000 ) ) ;
#95 = CARTESIAN_POINT ( 'NONE',  ( 6.000000000000000888, 7.347880794884120722E-16, 5.000000000000000000 ) ) ;
#96 = EDGE_CURVE ( 'NONE', #109, #174, #87, .T. ) ;
#97 = COORDINATED_UNIVERSAL_TIME_OFFSET ( 1, 0, .AHEAD. ) ;
#98 = AXIS2_PLACEMENT_3D ( 'NONE', #207, #120, #170 ) ;
#99 = CARTESIAN_POINT ( 'NONE',  ( -3.250000000000000444, 0.000000000000000000, 5.000000000000000000 ) ) ;
#100 = DIRECTION ( 'NONE',  ( 1.000000000000000000, 0.000000000000000000, 0.000000000000000000 ) ) ;
#101 = CARTESIAN_POINT ( 'NONE',  ( -6.000000000000000888, 0.000000000000000000, 5.000000000000000000 ) ) ;
#102 = COORDINATED_UNIVERSAL_TIME_OFFSET ( 1, 0, .AHEAD. ) ;
#103 = DIRECTION ( 'NONE',  ( 1.000000000000000000, 0.000000000000000000, -0.000000000000000000 ) ) ;
#104 = CIRCLE ( 'NONE', #249, 3.250000000000000444 ) ;
#105 = CYLINDRICAL_SURFACE ( 'NONE', #98, 3.250000000000000444 ) ;
#106 = LOCAL_TIME ( 15, 52, 47.00000000000000000, #228 ) ;
#107 = PERSON_AND_ORGANIZATION_ROLE ( 'creator' ) ;
#108 = AXIS2_PLACEMENT_3D ( 'NONE', #127, #62, #168 ) ;
#109 = VERTEX_POINT ( 'NONE', #89 ) ;
#110 = ORIENTED_EDGE ( 'NONE', *, *, #239, .T. ) ;
#111 = DATE_AND_TIME ( #113, #123 ) ;
#112 = EDGE_LOOP ( 'NONE', ( #161, #235 ) ) ;
#113 = CALENDAR_DATE ( 2023, 13, 2 ) ;
#114 = DIRECTION ( 'NONE',  ( 0.000000000000000000, 0.000000000000000000, 1.000000000000000000 ) ) ;
#115 = ADVANCED_FACE ( 'NONE', ( #63 ), #245, .T. ) ;
#116 = DIRECTION ( 'NONE',  ( 1.000000000000000000, 0.000000000000000000, 0.000000000000000000 ) ) ;
#117 = APPROVAL_STATUS ( 'not_yet_approved' ) ;
#118 = ADVANCED_BREP_SHAPE_REPRESENTATION ( '2983', ( #77, #88 ), #193 ) ;
#119 = DIRECTION ( 'NONE',  ( 0.000000000000000000, 0.000000000000000000, 1.000000000000000000 ) ) ;
#120 = DIRECTION ( 'NONE',  ( -0.000000000000000000, -0.000000000000000000, -1.000000000000000000 ) ) ;
#121 = CARTESIAN_POINT ( 'NONE',  ( 0.000000000000000000, 0.000000000000000000, 315.0000000000000000 ) ) ;
#122 = CC_DESIGN_APPROVAL ( #160, ( #221 ) ) ;
#123 = LOCAL_TIME ( 15, 52, 47.00000000000000000, #159 ) ;
#124 = EDGE_CURVE ( 'NONE', #215, #233, #179, .T. ) ;
#125 = DIRECTION ( 'NONE',  ( 1.000000000000000000, 0.000000000000000000, 0.000000000000000000 ) ) ;
#126 = CIRCLE ( 'NONE', #223, 3.250000000000000444 ) ;
#127 = CARTESIAN_POINT ( 'NONE',  ( 0.000000000000000000, 0.000000000000000000, 0.000000000000000000 ) ) ;
#128 = PERSON_AND_ORGANIZATION ( #35, #240 ) ;
#129 =( NAMED_UNIT ( * ) PLANE_ANGLE_UNIT ( ) SI_UNIT ( $, .RADIAN. ) );
#130 = CC_DESIGN_SECURITY_CLASSIFICATION ( #221, ( #40 ) ) ;
#131 = UNCERTAINTY_MEASURE_WITH_UNIT (LENGTH_MEASURE( 1.000000000000000082E-05 ), #154, 'distance_accuracy_value', 'NONE');
#132 = ORIENTED_EDGE ( 'NONE', *, *, #139, .T. ) ;
#133 = ORIENTED_EDGE ( 'NONE', *, *, #136, .F. ) ;
#134 = CARTESIAN_POINT ( 'NONE',  ( 0.000000000000000000, 0.000000000000000000, 5.000000000000000000 ) ) ;
#135 = CIRCLE ( 'NONE', #83, 6.000000000000000888 ) ;
#136 = EDGE_CURVE ( 'NONE', #36, #109, #190, .T. ) ;
#137 = ORIENTED_EDGE ( 'NONE', *, *, #225, .T. ) ;
#138 = ORIENTED_EDGE ( 'NONE', *, *, #42, .F. ) ;
#139 = EDGE_CURVE ( 'NONE', #50, #174, #104, .T. ) ;
#140 = CARTESIAN_POINT ( 'NONE',  ( 0.000000000000000000, 0.000000000000000000, 0.000000000000000000 ) ) ;
#141 = VECTOR ( 'NONE', #229, 1000.000000000000000 ) ;
#142 = FACE_OUTER_BOUND ( 'NONE', #19, .T. ) ;
#143 = VECTOR ( 'NONE', #147, 1000.000000000000000 ) ;
#144 = APPLICATION_PROTOCOL_DEFINITION ( 'international standard', 'config_control_design', 1994, #54 ) ;
#145 = DIRECTION ( 'NONE',  ( 0.000000000000000000, 0.000000000000000000, 1.000000000000000000 ) ) ;
#146 = PERSON_AND_ORGANIZATION ( #35, #240 ) ;
#147 = DIRECTION ( 'NONE',  ( -0.000000000000000000, -0.000000000000000000, -1.000000000000000000 ) ) ;
#148 = SECURITY_CLASSIFICATION_LEVEL ( 'unclassified' ) ;
#149 = DIRECTION ( 'NONE',  ( 1.000000000000000000, 0.000000000000000000, 0.000000000000000000 ) ) ;
#150 = AXIS2_PLACEMENT_3D ( 'NONE', #39, #254, #116 ) ;
#151 = CARTESIAN_POINT ( 'NONE',  ( 0.000000000000000000, 0.000000000000000000, 315.0000000000000000 ) ) ;
#152 = ORIENTED_EDGE ( 'NONE', *, *, #52, .T. ) ;
#153 = APPROVAL_PERSON_ORGANIZATION ( #206, #10, #81 ) ;
#154 =( LENGTH_UNIT ( ) NAMED_UNIT ( * ) SI_UNIT ( .MILLI., .METRE. ) );
#155 = ORIENTED_EDGE ( 'NONE', *, *, #96, .T. ) ;
#156 = CIRCLE ( 'NONE', #150, 6.000000000000000888 ) ;
#157 = DIRECTION ( 'NONE',  ( 0.000000000000000000, 0.000000000000000000, 1.000000000000000000 ) ) ;
#158 = VERTEX_POINT ( 'NONE', #31 ) ;
#159 = COORDINATED_UNIVERSAL_TIME_OFFSET ( 1, 0, .AHEAD. ) ;
#160 = APPROVAL ( #230, 'NEURÈENÝ' ) ;
#161 = ORIENTED_EDGE ( 'NONE', *, *, #16, .F. ) ;
#162 = EDGE_CURVE ( 'NONE', #36, #50, #187, .T. ) ;
#163 = DIRECTION ( 'NONE',  ( -0.000000000000000000, -0.000000000000000000, -1.000000000000000000 ) ) ;
#164 = CALENDAR_DATE ( 2023, 13, 2 ) ;
#165 = VECTOR ( 'NONE', #227, 1000.000000000000000 ) ;
#166 = ADVANCED_FACE ( 'NONE', ( #85 ), #105, .T. ) ;
#167 = CIRCLE ( 'NONE', #13, 3.250000000000000444 ) ;
#168 = DIRECTION ( 'NONE',  ( 1.000000000000000000, 0.000000000000000000, 0.000000000000000000 ) ) ;
#169 = CALENDAR_DATE ( 2023, 13, 2 ) ;
#170 = DIRECTION ( 'NONE',  ( -1.000000000000000000, 0.000000000000000000, 0.000000000000000000 ) ) ;
#171 = DATE_TIME_ROLE ( 'classification_date' ) ;
#172 = CARTESIAN_POINT ( 'NONE',  ( 0.000000000000000000, 0.000000000000000000, 5.000000000000000000 ) ) ;
#173 = DIRECTION ( 'NONE',  ( 1.000000000000000000, 0.000000000000000000, 0.000000000000000000 ) ) ;
#174 = VERTEX_POINT ( 'NONE', #99 ) ;
#175 = CC_DESIGN_DATE_AND_TIME_ASSIGNMENT ( #59, #1, ( #253 ) ) ;
#176 = EDGE_LOOP ( 'NONE', ( #38, #251, #155, #217 ) ) ;
#177 = APPROVAL_DATE_TIME ( #111, #160 ) ;
#178 = VECTOR ( 'NONE', #163, 1000.000000000000000 ) ;
#179 = CIRCLE ( 'NONE', #61, 6.000000000000000888 ) ;
#180 = ADVANCED_FACE ( 'NONE', ( #65 ), #14, .T. ) ;
#181 = PERSON_AND_ORGANIZATION_ROLE ( 'creator' ) ;
#182 = CIRCLE ( 'NONE', #108, 6.000000000000000888 ) ;
#183 = PERSON_AND_ORGANIZATION_ROLE ( 'design_owner' ) ;
#184 = DIRECTION ( 'NONE',  ( 0.000000000000000000, 0.000000000000000000, 1.000000000000000000 ) ) ;
#185 = CALENDAR_DATE ( 2023, 13, 2 ) ;
#186 = ADVANCED_FACE ( 'NONE', ( #5 ), #241, .T. ) ;
#187 = LINE ( 'NONE', #226, #141 ) ;
#188 = DATE_AND_TIME ( #185, #28 ) ;
#189 = CARTESIAN_POINT ( 'NONE',  ( -3.250000000000000444, 0.000000000000000000, 315.0000000000000000 ) ) ;
#190 = CIRCLE ( 'NONE', #71, 3.250000000000000444 ) ;
#191 = PERSON_AND_ORGANIZATION ( #35, #240 ) ;
#192 = DIRECTION ( 'NONE',  ( 1.000000000000000000, 0.000000000000000000, 0.000000000000000000 ) ) ;
#193 =( GEOMETRIC_REPRESENTATION_CONTEXT ( 3 ) GLOBAL_UNCERTAINTY_ASSIGNED_CONTEXT ( ( #131 ) ) GLOBAL_UNIT_ASSIGNED_CONTEXT ( ( #154, #129, #6 ) ) REPRESENTATION_CONTEXT ( 'NONE', 'WORKASPACE' ) );
#194 = ORIENTED_EDGE ( 'NONE', *, *, #124, .F. ) ;
#195 = ORIENTED_EDGE ( 'NONE', *, *, #42, .T. ) ;
#196 = FACE_OUTER_BOUND ( 'NONE', #51, .T. ) ;
#197 = ORIENTED_EDGE ( 'NONE', *, *, #136, .T. ) ;
#198 = DIRECTION ( 'NONE',  ( 0.000000000000000000, 0.000000000000000000, 1.000000000000000000 ) ) ;
#199 = AXIS2_PLACEMENT_3D ( 'NONE', #172, #26, #247 ) ;
#200 = DIRECTION ( 'NONE',  ( 1.000000000000000000, 0.000000000000000000, -0.000000000000000000 ) ) ;
#201 = APPROVAL_DATE_TIME ( #188, #10 ) ;
#202 = CC_DESIGN_PERSON_AND_ORGANIZATION_ASSIGNMENT ( #212, #86, ( #221 ) ) ;
#203 = APPROVAL_ROLE ( '' ) ;
#204 = APPROVAL_PERSON_ORGANIZATION ( #79, #37, #203 ) ;
#205 = CARTESIAN_POINT ( 'NONE',  ( 0.000000000000000000, 0.000000000000000000, 315.0000000000000000 ) ) ;
#206 = PERSON_AND_ORGANIZATION ( #35, #240 ) ;
#207 = CARTESIAN_POINT ( 'NONE',  ( 0.000000000000000000, 0.000000000000000000, 315.0000000000000000 ) ) ;
#208 = APPROVAL_PERSON_ORGANIZATION ( #128, #160, #250 ) ;
#209 = DIRECTION ( 'NONE',  ( 0.000000000000000000, 0.000000000000000000, 1.000000000000000000 ) ) ;
#210 = CARTESIAN_POINT ( 'NONE',  ( 0.000000000000000000, 0.000000000000000000, 5.000000000000000000 ) ) ;
#211 = AXIS2_PLACEMENT_3D ( 'NONE', #140, #219, #103 ) ;
#212 = PERSON_AND_ORGANIZATION ( #35, #240 ) ;
#213 = DIRECTION ( 'NONE',  ( 0.000000000000000000, 0.000000000000000000, 1.000000000000000000 ) ) ;
#214 = CC_DESIGN_PERSON_AND_ORGANIZATION_ASSIGNMENT ( #191, #29, ( #40 ) ) ;
#215 = VERTEX_POINT ( 'NONE', #101 ) ;
#216 = EDGE_LOOP ( 'NONE', ( #110, #197 ) ) ;
#217 = ORIENTED_EDGE ( 'NONE', *, *, #16, .T. ) ;
#218 = CC_DESIGN_DATE_AND_TIME_ASSIGNMENT ( #12, #171, ( #221 ) ) ;
#219 = DIRECTION ( 'NONE',  ( 0.000000000000000000, 0.000000000000000000, 1.000000000000000000 ) ) ;
#220 = EDGE_CURVE ( 'NONE', #233, #215, #135, .T. ) ;
#221 = SECURITY_CLASSIFICATION ( '', '', #148 ) ;
#222 = CARTESIAN_POINT ( 'NONE',  ( 0.000000000000000000, 0.000000000000000000, 5.000000000000000000 ) ) ;
#223 = AXIS2_PLACEMENT_3D ( 'NONE', #134, #198, #20 ) ;
#224 = CARTESIAN_POINT ( 'NONE',  ( -6.000000000000000888, 0.000000000000000000, 5.000000000000000000 ) ) ;
#225 = EDGE_CURVE ( 'NONE', #233, #248, #67, .T. ) ;
#226 = CARTESIAN_POINT ( 'NONE',  ( 3.250000000000000444, 3.980102097228898231E-16, 315.0000000000000000 ) ) ;
#227 = DIRECTION ( 'NONE',  ( -0.000000000000000000, -0.000000000000000000, -1.000000000000000000 ) ) ;
#228 = COORDINATED_UNIVERSAL_TIME_OFFSET ( 1, 0, .AHEAD. ) ;
#229 = DIRECTION ( 'NONE',  ( -0.000000000000000000, -0.000000000000000000, -1.000000000000000000 ) ) ;
#230 = APPROVAL_STATUS ( 'not_yet_approved' ) ;
#231 = ORIENTED_EDGE ( 'NONE', *, *, #124, .T. ) ;
#232 = ADVANCED_FACE ( 'NONE', ( #57, #196 ), #18, .T. ) ;
#233 = VERTEX_POINT ( 'NONE', #95 ) ;
#234 = SHAPE_DEFINITION_REPRESENTATION ( #69, #118 ) ;
#235 = ORIENTED_EDGE ( 'NONE', *, *, #139, .F. ) ;
#236 = ORIENTED_EDGE ( 'NONE', *, *, #96, .F. ) ;
#237 = ORIENTED_EDGE ( 'NONE', *, *, #162, .T. ) ;
#238 = DIRECTION ( 'NONE',  ( -0.000000000000000000, -0.000000000000000000, -1.000000000000000000 ) ) ;
#239 = EDGE_CURVE ( 'NONE', #109, #36, #167, .T. ) ;
#240 = ORGANIZATION ( 'NEURÈENÝ', 'NEURÈENÝ', '' ) ;
#241 = CYLINDRICAL_SURFACE ( 'NONE', #244, 3.250000000000000444 ) ;
#242 = DIRECTION ( 'NONE',  ( 0.000000000000000000, 0.000000000000000000, 1.000000000000000000 ) ) ;
#243 = APPROVAL_DATE_TIME ( #66, #37 ) ;
#244 = AXIS2_PLACEMENT_3D ( 'NONE', #151, #44, #82 ) ;
#245 = PLANE ( 'NONE',  #32 ) ;
#246 = APPLICATION_CONTEXT ( 'configuration controlled 3d designs of mechanical parts and assemblies' ) ;
#247 = DIRECTION ( 'NONE',  ( -1.000000000000000000, 0.000000000000000000, 0.000000000000000000 ) ) ;
#248 = VERTEX_POINT ( 'NONE', #76 ) ;
#249 = AXIS2_PLACEMENT_3D ( 'NONE', #30, #184, #149 ) ;
#250 = APPROVAL_ROLE ( '' ) ;
#251 = ORIENTED_EDGE ( 'NONE', *, *, #239, .F. ) ;
#252 = CC_DESIGN_PERSON_AND_ORGANIZATION_ASSIGNMENT ( #27, #183, ( #93 ) ) ;
#253 = PRODUCT_DEFINITION ( 'NEZNÁMÝ', '', #40, #92 ) ;
#254 = DIRECTION ( 'NONE',  ( 0.000000000000000000, 0.000000000000000000, 1.000000000000000000 ) ) ;
#255 = CARTESIAN_POINT ( 'NONE',  ( 0.000000000000000000, 0.000000000000000000, 315.0000000000000000 ) ) ;
ENDSEC;
END-ISO-10303-21;
