ISO-10303-21;
HEADER;
FILE_DESCRIPTION (( 'STEP AP203' ),
    '1' );
FILE_NAME ('9342.STEP',
    '2022-07-07T17:46:05',
    ( '' ),
    ( '' ),
    'SwSTEP 2.0',
    'SolidWorks 2019',
    '' );
FILE_SCHEMA (( 'CONFIG_CONTROL_DESIGN' ));
ENDSEC;

DATA;
#1 = APPLICATION_CONTEXT ( 'configuration controlled 3d designs of mechanical parts and assemblies' ) ;
#2 = APPROVAL ( #220, 'NEURÈENÝ' ) ;
#3 = PLANE ( 'NONE',  #200 ) ;
#4 = CALENDAR_DATE ( 2022, 7, 7 ) ;
#5 = DIRECTION ( 'NONE',  ( 1.000000000000000000, 0.000000000000000000, 0.000000000000000000 ) ) ;
#6 = DIRECTION ( 'NONE',  ( -1.000000000000000000, 0.000000000000000000, 0.000000000000000000 ) ) ;
#7 = ORIENTED_EDGE ( 'NONE', *, *, #250, .F. ) ;
#8 = CALENDAR_DATE ( 2022, 7, 7 ) ;
#9 = CARTESIAN_POINT ( 'NONE',  ( -5.000000000000000000, 0.000000000000000000, 0.000000000000000000 ) ) ;
#10 = ADVANCED_FACE ( 'NONE', ( #128, #222 ), #240, .T. ) ;
#11 = DIRECTION ( 'NONE',  ( 1.000000000000000000, 0.000000000000000000, -0.000000000000000000 ) ) ;
#12 = APPROVAL_STATUS ( 'not_yet_approved' ) ;
#13 = DIRECTION ( 'NONE',  ( 1.000000000000000000, 0.000000000000000000, 0.000000000000000000 ) ) ;
#14 = ORIENTED_EDGE ( 'NONE', *, *, #116, .T. ) ;
#15 = CARTESIAN_POINT ( 'NONE',  ( 0.000000000000000000, 0.000000000000000000, 128.0000000000000000 ) ) ;
#16 = AXIS2_PLACEMENT_3D ( 'NONE', #188, #183, #5 ) ;
#17 = CC_DESIGN_APPROVAL ( #196, ( #134 ) ) ;
#18 = DIRECTION ( 'NONE',  ( 1.000000000000000000, 0.000000000000000000, -0.000000000000000000 ) ) ;
#19 = CIRCLE ( 'NONE', #212, 2.600000000000000089 ) ;
#20 = ADVANCED_FACE ( 'NONE', ( #191 ), #92, .T. ) ;
#21 =( NAMED_UNIT ( * ) PLANE_ANGLE_UNIT ( ) SI_UNIT ( $, .RADIAN. ) );
#22 = PERSON_AND_ORGANIZATION ( #89, #52 ) ;
#23 = EDGE_CURVE ( 'NONE', #69, #209, #252, .T. ) ;
#24 = DATE_AND_TIME ( #199, #254 ) ;
#25 = VECTOR ( 'NONE', #140, 1000.000000000000000 ) ;
#26 = PERSON_AND_ORGANIZATION_ROLE ( 'creator' ) ;
#27 = DIRECTION ( 'NONE',  ( 0.000000000000000000, 0.000000000000000000, 1.000000000000000000 ) ) ;
#28 = DIRECTION ( 'NONE',  ( 0.000000000000000000, 0.000000000000000000, 1.000000000000000000 ) ) ;
#29 = VERTEX_POINT ( 'NONE', #207 ) ;
#30 = CIRCLE ( 'NONE', #210, 2.600000000000000089 ) ;
#31 = PERSON_AND_ORGANIZATION ( #89, #52 ) ;
#32 = CARTESIAN_POINT ( 'NONE',  ( 5.000000000000000000, 6.123233995736766282E-16, 3.000000000000000000 ) ) ;
#33 = AXIS2_PLACEMENT_3D ( 'NONE', #233, #198, #59 ) ;
#34 = CC_DESIGN_DATE_AND_TIME_ASSIGNMENT ( #147, #85, ( #227 ) ) ;
#35 = COORDINATED_UNIVERSAL_TIME_OFFSET ( 1, 0, .AHEAD. ) ;
#36 = CARTESIAN_POINT ( 'NONE',  ( 0.000000000000000000, 0.000000000000000000, 128.0000000000000000 ) ) ;
#37 = ORIENTED_EDGE ( 'NONE', *, *, #101, .T. ) ;
#38 = ORIENTED_EDGE ( 'NONE', *, *, #101, .F. ) ;
#39 = APPROVAL_PERSON_ORGANIZATION ( #31, #2, #44 ) ;
#40 = FACE_OUTER_BOUND ( 'NONE', #224, .T. ) ;
#41 = PERSON_AND_ORGANIZATION_ROLE ( 'design_owner' ) ;
#42 = PERSON_AND_ORGANIZATION ( #89, #52 ) ;
#43 = CC_DESIGN_PERSON_AND_ORGANIZATION_ASSIGNMENT ( #79, #63, ( #227 ) ) ;
#44 = APPROVAL_ROLE ( '' ) ;
#45 = DIRECTION ( 'NONE',  ( 0.000000000000000000, 0.000000000000000000, 1.000000000000000000 ) ) ;
#46 = DIRECTION ( 'NONE',  ( -0.000000000000000000, -0.000000000000000000, -1.000000000000000000 ) ) ;
#47 = ORIENTED_EDGE ( 'NONE', *, *, #236, .T. ) ;
#48 = COORDINATED_UNIVERSAL_TIME_OFFSET ( 1, 0, .AHEAD. ) ;
#49 = DIRECTION ( 'NONE',  ( 0.000000000000000000, 0.000000000000000000, 1.000000000000000000 ) ) ;
#50 = EDGE_LOOP ( 'NONE', ( #219, #238 ) ) ;
#51 = LINE ( 'NONE', #129, #194 ) ;
#52 = ORGANIZATION ( 'NEURÈENÝ', 'NEURÈENÝ', '' ) ;
#53 = VERTEX_POINT ( 'NONE', #9 ) ;
#54 = EDGE_LOOP ( 'NONE', ( #38, #171, #47, #14 ) ) ;
#55 = LOCAL_TIME ( 19, 46, 5.000000000000000000, #120 ) ;
#56 = CIRCLE ( 'NONE', #91, 5.000000000000000000 ) ;
#57 = PERSON_AND_ORGANIZATION ( #89, #52 ) ;
#58 = CC_DESIGN_APPROVAL ( #2, ( #76 ) ) ;
#59 = DIRECTION ( 'NONE',  ( 1.000000000000000000, 0.000000000000000000, 0.000000000000000000 ) ) ;
#60 = COORDINATED_UNIVERSAL_TIME_OFFSET ( 1, 0, .AHEAD. ) ;
#61 = LOCAL_TIME ( 19, 46, 5.000000000000000000, #35 ) ;
#62 = MANIFOLD_SOLID_BREP ( 'Pøidat vysunutím3', #117 ) ;
#63 = PERSON_AND_ORGANIZATION_ROLE ( 'classification_officer' ) ;
#64 = CARTESIAN_POINT ( 'NONE',  ( 5.000000000000000000, 6.123233995736766282E-16, 0.000000000000000000 ) ) ;
#65 = FACE_OUTER_BOUND ( 'NONE', #160, .T. ) ;
#66 = CARTESIAN_POINT ( 'NONE',  ( 2.600000000000000089, 3.184081677783118191E-16, 128.0000000000000000 ) ) ;
#67 = EDGE_LOOP ( 'NONE', ( #225, #187, #173, #164 ) ) ;
#68 = CARTESIAN_POINT ( 'NONE',  ( -2.600000000000000089, 0.000000000000000000, 128.0000000000000000 ) ) ;
#69 = VERTEX_POINT ( 'NONE', #80 ) ;
#70 = AXIS2_PLACEMENT_3D ( 'NONE', #15, #158, #6 ) ;
#71 = CARTESIAN_POINT ( 'NONE',  ( 0.000000000000000000, 0.000000000000000000, 128.0000000000000000 ) ) ;
#72 = AXIS2_PLACEMENT_3D ( 'NONE', #241, #45, #13 ) ;
#73 = VERTEX_POINT ( 'NONE', #64 ) ;
#74 = LINE ( 'NONE', #100, #130 ) ;
#75 = MECHANICAL_CONTEXT ( 'NONE', #1, 'mechanical' ) ;
#76 = PRODUCT_DEFINITION_FORMATION_WITH_SPECIFIED_SOURCE ( 'LIBOVOLNÝ', '', #182, .NOT_KNOWN. ) ;
#77 = EDGE_CURVE ( 'NONE', #143, #202, #30, .T. ) ;
#78 = EDGE_CURVE ( 'NONE', #202, #143, #19, .T. ) ;
#79 = PERSON_AND_ORGANIZATION ( #89, #52 ) ;
#80 = CARTESIAN_POINT ( 'NONE',  ( -2.600000000000000089, 0.000000000000000000, 128.0000000000000000 ) ) ;
#81 = CARTESIAN_POINT ( 'NONE',  ( 0.000000000000000000, 0.000000000000000000, 3.000000000000000000 ) ) ;
#82 = DATE_AND_TIME ( #4, #61 ) ;
#83 = DIRECTION ( 'NONE',  ( 1.000000000000000000, 0.000000000000000000, 0.000000000000000000 ) ) ;
#84 = ORIENTED_EDGE ( 'NONE', *, *, #87, .F. ) ;
#85 = DATE_TIME_ROLE ( 'classification_date' ) ;
#86 = LINE ( 'NONE', #32, #25 ) ;
#87 = EDGE_CURVE ( 'NONE', #73, #53, #205, .T. ) ;
#88 = FACE_OUTER_BOUND ( 'NONE', #50, .T. ) ;
#89 = PERSON ( 'NEURÈENÝ', 'NEURÈENÝ', 'NEURÈENÝ', ('NEURÈENÝ'), ('NEURÈENÝ'), ('NEURÈENÝ') ) ;
#90 = CC_DESIGN_DATE_AND_TIME_ASSIGNMENT ( #24, #179, ( #134 ) ) ;
#91 = AXIS2_PLACEMENT_3D ( 'NONE', #162, #49, #159 ) ;
#92 = CYLINDRICAL_SURFACE ( 'NONE', #70, 2.600000000000000089 ) ;
#93 = EDGE_LOOP ( 'NONE', ( #169, #110 ) ) ;
#94 = CC_DESIGN_PERSON_AND_ORGANIZATION_ASSIGNMENT ( #22, #41, ( #182 ) ) ;
#95 = DESIGN_CONTEXT ( 'detailed design', #123, 'design' ) ;
#96 = LOCAL_TIME ( 19, 46, 5.000000000000000000, #165 ) ;
#97 = PRODUCT_RELATED_PRODUCT_CATEGORY ( 'detail', '', ( #182 ) ) ;
#98 =( LENGTH_UNIT ( ) NAMED_UNIT ( * ) SI_UNIT ( .MILLI., .METRE. ) );
#99 = CC_DESIGN_SECURITY_CLASSIFICATION ( #227, ( #76 ) ) ;
#100 = CARTESIAN_POINT ( 'NONE',  ( -5.000000000000000000, 0.000000000000000000, 3.000000000000000000 ) ) ;
#101 = EDGE_CURVE ( 'NONE', #29, #73, #86, .T. ) ;
#102 = DIRECTION ( 'NONE',  ( 1.000000000000000000, 0.000000000000000000, 0.000000000000000000 ) ) ;
#103 = AXIS2_PLACEMENT_3D ( 'NONE', #184, #27, #242 ) ;
#104 = PERSON_AND_ORGANIZATION ( #89, #52 ) ;
#105 = VECTOR ( 'NONE', #148, 1000.000000000000000 ) ;
#106 = DIRECTION ( 'NONE',  ( 0.000000000000000000, 0.000000000000000000, 1.000000000000000000 ) ) ;
#107 = CYLINDRICAL_SURFACE ( 'NONE', #122, 5.000000000000000000 ) ;
#108 = ORIENTED_EDGE ( 'NONE', *, *, #77, .T. ) ;
#109 = DIRECTION ( 'NONE',  ( 1.000000000000000000, 0.000000000000000000, -0.000000000000000000 ) ) ;
#110 = ORIENTED_EDGE ( 'NONE', *, *, #77, .F. ) ;
#111 = CARTESIAN_POINT ( 'NONE',  ( 0.000000000000000000, 0.000000000000000000, 3.000000000000000000 ) ) ;
#112 = ORIENTED_EDGE ( 'NONE', *, *, #197, .T. ) ;
#113 = ORIENTED_EDGE ( 'NONE', *, *, #228, .T. ) ;
#114 = LOCAL_TIME ( 19, 46, 5.000000000000000000, #48 ) ;
#115 = APPROVAL_PERSON_ORGANIZATION ( #139, #138, #157 ) ;
#116 = EDGE_CURVE ( 'NONE', #53, #73, #56, .T. ) ;
#117 = CLOSED_SHELL ( 'NONE', ( #174, #132, #168, #10, #229, #20, #119 ) ) ;
#118 = APPLICATION_PROTOCOL_DEFINITION ( 'international standard', 'config_control_design', 1994, #123 ) ;
#119 = ADVANCED_FACE ( 'NONE', ( #88 ), #237, .T. ) ;
#120 = COORDINATED_UNIVERSAL_TIME_OFFSET ( 1, 0, .AHEAD. ) ;
#121 = LINE ( 'NONE', #68, #105 ) ;
#122 = AXIS2_PLACEMENT_3D ( 'NONE', #218, #46, #221 ) ;
#123 = APPLICATION_CONTEXT ( 'configuration controlled 3d designs of mechanical parts and assemblies' ) ;
#124 = DIRECTION ( 'NONE',  ( -0.000000000000000000, -0.000000000000000000, -1.000000000000000000 ) ) ;
#125 = ORIENTED_EDGE ( 'NONE', *, *, #247, .T. ) ;
#126 = CALENDAR_DATE ( 2022, 7, 7 ) ;
#127 = CARTESIAN_POINT ( 'NONE',  ( 0.000000000000000000, 0.000000000000000000, 3.000000000000000000 ) ) ;
#128 = FACE_BOUND ( 'NONE', #93, .T. ) ;
#129 = CARTESIAN_POINT ( 'NONE',  ( 2.600000000000000089, 3.184081677783118191E-16, 128.0000000000000000 ) ) ;
#130 = VECTOR ( 'NONE', #255, 1000.000000000000000 ) ;
#131 = ORIENTED_EDGE ( 'NONE', *, *, #236, .F. ) ;
#132 = ADVANCED_FACE ( 'NONE', ( #65 ), #239, .T. ) ;
#133 = ORIENTED_EDGE ( 'NONE', *, *, #226, .F. ) ;
#134 = PRODUCT_DEFINITION ( 'NEZNÁMÝ', '', #76, #95 ) ;
#135 = APPROVAL_DATE_TIME ( #215, #196 ) ;
#136 = DIRECTION ( 'NONE',  ( 0.000000000000000000, 0.000000000000000000, 1.000000000000000000 ) ) ;
#137 =( GEOMETRIC_REPRESENTATION_CONTEXT ( 3 ) GLOBAL_UNCERTAINTY_ASSIGNED_CONTEXT ( ( #246 ) ) GLOBAL_UNIT_ASSIGNED_CONTEXT ( ( #98, #21, #175 ) ) REPRESENTATION_CONTEXT ( 'NONE', 'WORKASPACE' ) );
#138 = APPROVAL ( #12, 'NEURÈENÝ' ) ;
#139 = PERSON_AND_ORGANIZATION ( #89, #52 ) ;
#140 = DIRECTION ( 'NONE',  ( -0.000000000000000000, -0.000000000000000000, -1.000000000000000000 ) ) ;
#141 = PRODUCT_DEFINITION_SHAPE ( 'NONE', 'NONE',  #134 ) ;
#142 = DIRECTION ( 'NONE',  ( -1.000000000000000000, 0.000000000000000000, 0.000000000000000000 ) ) ;
#143 = VERTEX_POINT ( 'NONE', #204 ) ;
#144 = APPROVAL_DATE_TIME ( #82, #2 ) ;
#145 = DIRECTION ( 'NONE',  ( 1.000000000000000000, 0.000000000000000000, 0.000000000000000000 ) ) ;
#146 = ORIENTED_EDGE ( 'NONE', *, *, #87, .T. ) ;
#147 = DATE_AND_TIME ( #8, #114 ) ;
#148 = DIRECTION ( 'NONE',  ( -0.000000000000000000, -0.000000000000000000, -1.000000000000000000 ) ) ;
#149 = ORIENTED_EDGE ( 'NONE', *, *, #116, .F. ) ;
#150 = ORIENTED_EDGE ( 'NONE', *, *, #197, .F. ) ;
#151 = APPLICATION_PROTOCOL_DEFINITION ( 'international standard', 'config_control_design', 1994, #1 ) ;
#152 = CIRCLE ( 'NONE', #72, 5.000000000000000000 ) ;
#153 = DIRECTION ( 'NONE',  ( 0.000000000000000000, 0.000000000000000000, 1.000000000000000000 ) ) ;
#154 = CARTESIAN_POINT ( 'NONE',  ( -5.000000000000000000, 0.000000000000000000, 3.000000000000000000 ) ) ;
#155 = CC_DESIGN_PERSON_AND_ORGANIZATION_ASSIGNMENT ( #234, #26, ( #76 ) ) ;
#156 = APPROVAL_ROLE ( '' ) ;
#157 = APPROVAL_ROLE ( '' ) ;
#158 = DIRECTION ( 'NONE',  ( -0.000000000000000000, -0.000000000000000000, -1.000000000000000000 ) ) ;
#159 = DIRECTION ( 'NONE',  ( 1.000000000000000000, 0.000000000000000000, 0.000000000000000000 ) ) ;
#160 = EDGE_LOOP ( 'NONE', ( #150, #37, #146, #131 ) ) ;
#161 = DATE_AND_TIME ( #126, #96 ) ;
#162 = CARTESIAN_POINT ( 'NONE',  ( 0.000000000000000000, 0.000000000000000000, 0.000000000000000000 ) ) ;
#163 = AXIS2_PLACEMENT_3D ( 'NONE', #195, #153, #231 ) ;
#164 = ORIENTED_EDGE ( 'NONE', *, *, #78, .T. ) ;
#165 = COORDINATED_UNIVERSAL_TIME_OFFSET ( 1, 0, .AHEAD. ) ;
#166 = CYLINDRICAL_SURFACE ( 'NONE', #180, 2.600000000000000089 ) ;
#167 = CC_DESIGN_PERSON_AND_ORGANIZATION_ASSIGNMENT ( #104, #185, ( #76 ) ) ;
#168 = ADVANCED_FACE ( 'NONE', ( #170 ), #107, .T. ) ;
#169 = ORIENTED_EDGE ( 'NONE', *, *, #78, .F. ) ;
#170 = FACE_OUTER_BOUND ( 'NONE', #54, .T. ) ;
#171 = ORIENTED_EDGE ( 'NONE', *, *, #247, .F. ) ;
#172 = APPROVAL_PERSON_ORGANIZATION ( #42, #196, #156 ) ;
#173 = ORIENTED_EDGE ( 'NONE', *, *, #226, .T. ) ;
#174 = ADVANCED_FACE ( 'NONE', ( #235 ), #166, .T. ) ;
#175 =( NAMED_UNIT ( * ) SI_UNIT ( $, .STERADIAN. ) SOLID_ANGLE_UNIT ( ) );
#176 = CC_DESIGN_APPROVAL ( #138, ( #227 ) ) ;
#177 = DIRECTION ( 'NONE',  ( -0.000000000000000000, -0.000000000000000000, -1.000000000000000000 ) ) ;
#178 = APPROVAL_STATUS ( 'not_yet_approved' ) ;
#179 = DATE_TIME_ROLE ( 'creation_date' ) ;
#180 = AXIS2_PLACEMENT_3D ( 'NONE', #36, #124, #217 ) ;
#181 = SECURITY_CLASSIFICATION_LEVEL ( 'unclassified' ) ;
#182 = PRODUCT ( '9342', '9342', '', ( #75 ) ) ;
#183 = DIRECTION ( 'NONE',  ( 0.000000000000000000, 0.000000000000000000, 1.000000000000000000 ) ) ;
#184 = CARTESIAN_POINT ( 'NONE',  ( 0.000000000000000000, 0.000000000000000000, 128.0000000000000000 ) ) ;
#185 = PERSON_AND_ORGANIZATION_ROLE ( 'design_supplier' ) ;
#186 = DIRECTION ( 'NONE',  ( 0.000000000000000000, 0.000000000000000000, 1.000000000000000000 ) ) ;
#187 = ORIENTED_EDGE ( 'NONE', *, *, #23, .F. ) ;
#188 = CARTESIAN_POINT ( 'NONE',  ( 0.000000000000000000, 0.000000000000000000, 0.000000000000000000 ) ) ;
#189 = CARTESIAN_POINT ( 'NONE',  ( 0.000000000000000000, 0.000000000000000000, 3.000000000000000000 ) ) ;
#190 = CC_DESIGN_PERSON_AND_ORGANIZATION_ASSIGNMENT ( #57, #213, ( #134 ) ) ;
#191 = FACE_OUTER_BOUND ( 'NONE', #67, .T. ) ;
#192 = AXIS2_PLACEMENT_3D ( 'NONE', #127, #223, #142 ) ;
#193 = ADVANCED_BREP_SHAPE_REPRESENTATION ( '9342', ( #62, #33 ), #137 ) ;
#194 = VECTOR ( 'NONE', #177, 1000.000000000000000 ) ;
#195 = CARTESIAN_POINT ( 'NONE',  ( 0.000000000000000000, 0.000000000000000000, 128.0000000000000000 ) ) ;
#196 = APPROVAL ( #178, 'NEURÈENÝ' ) ;
#197 = EDGE_CURVE ( 'NONE', #29, #245, #152, .T. ) ;
#198 = DIRECTION ( 'NONE',  ( 0.000000000000000000, 0.000000000000000000, 1.000000000000000000 ) ) ;
#199 = CALENDAR_DATE ( 2022, 7, 7 ) ;
#200 = AXIS2_PLACEMENT_3D ( 'NONE', #253, #214, #18 ) ;
#201 = CARTESIAN_POINT ( 'NONE',  ( -2.600000000000000089, 0.000000000000000000, 3.000000000000000000 ) ) ;
#202 = VERTEX_POINT ( 'NONE', #201 ) ;
#203 = APPROVAL_DATE_TIME ( #161, #138 ) ;
#204 = CARTESIAN_POINT ( 'NONE',  ( 2.600000000000000089, 3.184081677783118191E-16, 3.000000000000000000 ) ) ;
#205 = CIRCLE ( 'NONE', #16, 5.000000000000000000 ) ;
#206 = DIRECTION ( 'NONE',  ( 0.000000000000000000, 0.000000000000000000, 1.000000000000000000 ) ) ;
#207 = CARTESIAN_POINT ( 'NONE',  ( 5.000000000000000000, 6.123233995736766282E-16, 3.000000000000000000 ) ) ;
#208 = EDGE_LOOP ( 'NONE', ( #125, #112 ) ) ;
#209 = VERTEX_POINT ( 'NONE', #66 ) ;
#210 = AXIS2_PLACEMENT_3D ( 'NONE', #111, #106, #145 ) ;
#211 = CIRCLE ( 'NONE', #163, 2.600000000000000089 ) ;
#212 = AXIS2_PLACEMENT_3D ( 'NONE', #81, #28, #83 ) ;
#213 = PERSON_AND_ORGANIZATION_ROLE ( 'creator' ) ;
#214 = DIRECTION ( 'NONE',  ( 0.000000000000000000, 0.000000000000000000, 1.000000000000000000 ) ) ;
#215 = DATE_AND_TIME ( #232, #55 ) ;
#216 = SHAPE_DEFINITION_REPRESENTATION ( #141, #193 ) ;
#217 = DIRECTION ( 'NONE',  ( -1.000000000000000000, 0.000000000000000000, 0.000000000000000000 ) ) ;
#218 = CARTESIAN_POINT ( 'NONE',  ( 0.000000000000000000, 0.000000000000000000, 3.000000000000000000 ) ) ;
#219 = ORIENTED_EDGE ( 'NONE', *, *, #23, .T. ) ;
#220 = APPROVAL_STATUS ( 'not_yet_approved' ) ;
#221 = DIRECTION ( 'NONE',  ( -1.000000000000000000, 0.000000000000000000, 0.000000000000000000 ) ) ;
#222 = FACE_OUTER_BOUND ( 'NONE', #208, .T. ) ;
#223 = DIRECTION ( 'NONE',  ( -0.000000000000000000, -0.000000000000000000, -1.000000000000000000 ) ) ;
#224 = EDGE_LOOP ( 'NONE', ( #149, #84 ) ) ;
#225 = ORIENTED_EDGE ( 'NONE', *, *, #228, .F. ) ;
#226 = EDGE_CURVE ( 'NONE', #69, #202, #121, .T. ) ;
#227 = SECURITY_CLASSIFICATION ( '', '', #181 ) ;
#228 = EDGE_CURVE ( 'NONE', #209, #143, #51, .T. ) ;
#229 = ADVANCED_FACE ( 'NONE', ( #40 ), #3, .F. ) ;
#230 = AXIS2_PLACEMENT_3D ( 'NONE', #71, #186, #109 ) ;
#231 = DIRECTION ( 'NONE',  ( 1.000000000000000000, 0.000000000000000000, 0.000000000000000000 ) ) ;
#232 = CALENDAR_DATE ( 2022, 7, 7 ) ;
#233 = CARTESIAN_POINT ( 'NONE',  ( 0.000000000000000000, 0.000000000000000000, 0.000000000000000000 ) ) ;
#234 = PERSON_AND_ORGANIZATION ( #89, #52 ) ;
#235 = FACE_OUTER_BOUND ( 'NONE', #243, .T. ) ;
#236 = EDGE_CURVE ( 'NONE', #245, #53, #74, .T. ) ;
#237 = PLANE ( 'NONE',  #230 ) ;
#238 = ORIENTED_EDGE ( 'NONE', *, *, #250, .T. ) ;
#239 = CYLINDRICAL_SURFACE ( 'NONE', #192, 5.000000000000000000 ) ;
#240 = PLANE ( 'NONE',  #248 ) ;
#241 = CARTESIAN_POINT ( 'NONE',  ( 0.000000000000000000, 0.000000000000000000, 3.000000000000000000 ) ) ;
#242 = DIRECTION ( 'NONE',  ( 1.000000000000000000, 0.000000000000000000, 0.000000000000000000 ) ) ;
#243 = EDGE_LOOP ( 'NONE', ( #7, #113, #108, #133 ) ) ;
#244 = AXIS2_PLACEMENT_3D ( 'NONE', #251, #136, #102 ) ;
#245 = VERTEX_POINT ( 'NONE', #154 ) ;
#246 = UNCERTAINTY_MEASURE_WITH_UNIT (LENGTH_MEASURE( 1.000000000000000082E-05 ), #98, 'distance_accuracy_value', 'NONE');
#247 = EDGE_CURVE ( 'NONE', #245, #29, #249, .T. ) ;
#248 = AXIS2_PLACEMENT_3D ( 'NONE', #189, #206, #11 ) ;
#249 = CIRCLE ( 'NONE', #244, 5.000000000000000000 ) ;
#250 = EDGE_CURVE ( 'NONE', #209, #69, #211, .T. ) ;
#251 = CARTESIAN_POINT ( 'NONE',  ( 0.000000000000000000, 0.000000000000000000, 3.000000000000000000 ) ) ;
#252 = CIRCLE ( 'NONE', #103, 2.600000000000000089 ) ;
#253 = CARTESIAN_POINT ( 'NONE',  ( 0.000000000000000000, 0.000000000000000000, 0.000000000000000000 ) ) ;
#254 = LOCAL_TIME ( 19, 46, 5.000000000000000000, #60 ) ;
#255 = DIRECTION ( 'NONE',  ( -0.000000000000000000, -0.000000000000000000, -1.000000000000000000 ) ) ;
ENDSEC;
END-ISO-10303-21;
