ISO-10303-21;
HEADER;
FILE_DESCRIPTION (( 'STEP AP203' ),
    '1' );
FILE_NAME ('3340.STEP',
    '2022-07-07T17:13:17',
    ( '' ),
    ( '' ),
    'SwSTEP 2.0',
    'SolidWorks 2019',
    '' );
FILE_SCHEMA (( 'CONFIG_CONTROL_DESIGN' ));
ENDSEC;

DATA;
#1 = DIRECTION ( 'NONE',  ( 0.000000000000000000, 0.000000000000000000, 1.000000000000000000 ) ) ;
#2 = ADVANCED_FACE ( 'NONE', ( #141 ), #253, .T. ) ;
#3 = LINE ( 'NONE', #219, #217 ) ;
#4 = ADVANCED_FACE ( 'NONE', ( #255, #197 ), #94, .T. ) ;
#5 = APPROVAL_DATE_TIME ( #220, #201 ) ;
#6 = DIRECTION ( 'NONE',  ( 1.000000000000000000, 0.000000000000000000, 0.000000000000000000 ) ) ;
#7 = SHAPE_DEFINITION_REPRESENTATION ( #168, #63 ) ;
#8 = APPLICATION_PROTOCOL_DEFINITION ( 'international standard', 'config_control_design', 1994, #195 ) ;
#9 = CIRCLE ( 'NONE', #155, 11.00000000000000000 ) ;
#10 = PRODUCT_DEFINITION_FORMATION_WITH_SPECIFIED_SOURCE ( 'LIBOVOLNÝ', '', #84, .NOT_KNOWN. ) ;
#11 = DATE_TIME_ROLE ( 'classification_date' ) ;
#12 = CARTESIAN_POINT ( 'NONE',  ( 0.000000000000000000, 0.000000000000000000, 7.000000000000000000 ) ) ;
#13 = CARTESIAN_POINT ( 'NONE',  ( 0.000000000000000000, 0.000000000000000000, 322.0000000000000000 ) ) ;
#14 = FACE_OUTER_BOUND ( 'NONE', #173, .T. ) ;
#15 = EDGE_LOOP ( 'NONE', ( #171, #74 ) ) ;
#16 = DIRECTION ( 'NONE',  ( 0.000000000000000000, 0.000000000000000000, 1.000000000000000000 ) ) ;
#17 = ORIENTED_EDGE ( 'NONE', *, *, #93, .F. ) ;
#18 = AXIS2_PLACEMENT_3D ( 'NONE', #176, #1, #161 ) ;
#19 = ORIENTED_EDGE ( 'NONE', *, *, #238, .T. ) ;
#20 = CC_DESIGN_APPROVAL ( #88, ( #92 ) ) ;
#21 = CC_DESIGN_PERSON_AND_ORGANIZATION_ASSIGNMENT ( #99, #25, ( #27 ) ) ;
#22 = CIRCLE ( 'NONE', #119, 7.000000000000000000 ) ;
#23 = APPLICATION_PROTOCOL_DEFINITION ( 'international standard', 'config_control_design', 1994, #96 ) ;
#24 = AXIS2_PLACEMENT_3D ( 'NONE', #162, #237, #6 ) ;
#25 = PERSON_AND_ORGANIZATION_ROLE ( 'creator' ) ;
#26 = DIRECTION ( 'NONE',  ( -0.000000000000000000, -0.000000000000000000, -1.000000000000000000 ) ) ;
#27 = PRODUCT_DEFINITION ( 'NEZNÁMÝ', '', #10, #145 ) ;
#28 = CC_DESIGN_PERSON_AND_ORGANIZATION_ASSIGNMENT ( #223, #151, ( #10 ) ) ;
#29 = DATE_AND_TIME ( #105, #236 ) ;
#30 = CIRCLE ( 'NONE', #231, 11.00000000000000000 ) ;
#31 = CARTESIAN_POINT ( 'NONE',  ( -11.00000000000000000, 0.000000000000000000, 7.000000000000000000 ) ) ;
#32 = EDGE_CURVE ( 'NONE', #213, #90, #193, .T. ) ;
#33 = CARTESIAN_POINT ( 'NONE',  ( 0.000000000000000000, 0.000000000000000000, 322.0000000000000000 ) ) ;
#34 = CARTESIAN_POINT ( 'NONE',  ( 7.000000000000000000, 8.572527594031473190E-16, 7.000000000000000000 ) ) ;
#35 = VERTEX_POINT ( 'NONE', #156 ) ;
#36 =( GEOMETRIC_REPRESENTATION_CONTEXT ( 3 ) GLOBAL_UNCERTAINTY_ASSIGNED_CONTEXT ( ( #127 ) ) GLOBAL_UNIT_ASSIGNED_CONTEXT ( ( #101, #98, #240 ) ) REPRESENTATION_CONTEXT ( 'NONE', 'WORKASPACE' ) );
#37 = CARTESIAN_POINT ( 'NONE',  ( 0.000000000000000000, 0.000000000000000000, 0.000000000000000000 ) ) ;
#38 = EDGE_LOOP ( 'NONE', ( #160, #19, #113, #116 ) ) ;
#39 = CARTESIAN_POINT ( 'NONE',  ( 0.000000000000000000, 0.000000000000000000, 322.0000000000000000 ) ) ;
#40 = ORIENTED_EDGE ( 'NONE', *, *, #238, .F. ) ;
#41 = ORIENTED_EDGE ( 'NONE', *, *, #248, .F. ) ;
#42 = CC_DESIGN_SECURITY_CLASSIFICATION ( #92, ( #10 ) ) ;
#43 = CIRCLE ( 'NONE', #69, 7.000000000000000000 ) ;
#44 = CIRCLE ( 'NONE', #24, 11.00000000000000000 ) ;
#45 = LINE ( 'NONE', #121, #86 ) ;
#46 = DIRECTION ( 'NONE',  ( 0.000000000000000000, 0.000000000000000000, 1.000000000000000000 ) ) ;
#47 = APPROVAL_DATE_TIME ( #246, #88 ) ;
#48 = CC_DESIGN_APPROVAL ( #183, ( #10 ) ) ;
#49 = PERSON_AND_ORGANIZATION ( #185, #174 ) ;
#50 = PERSON_AND_ORGANIZATION_ROLE ( 'classification_officer' ) ;
#51 = DIRECTION ( 'NONE',  ( -0.000000000000000000, -0.000000000000000000, -1.000000000000000000 ) ) ;
#52 = ADVANCED_FACE ( 'NONE', ( #136 ), #214, .F. ) ;
#53 = CYLINDRICAL_SURFACE ( 'NONE', #234, 11.00000000000000000 ) ;
#54 = APPROVAL_DATE_TIME ( #242, #183 ) ;
#55 = DIRECTION ( 'NONE',  ( -0.000000000000000000, -0.000000000000000000, -1.000000000000000000 ) ) ;
#56 = AXIS2_PLACEMENT_3D ( 'NONE', #83, #16, #166 ) ;
#57 = CYLINDRICAL_SURFACE ( 'NONE', #80, 7.000000000000000000 ) ;
#58 = DIRECTION ( 'NONE',  ( 1.000000000000000000, 0.000000000000000000, 0.000000000000000000 ) ) ;
#59 = VERTEX_POINT ( 'NONE', #140 ) ;
#60 = EDGE_LOOP ( 'NONE', ( #40, #111, #211, #70 ) ) ;
#61 = ORIENTED_EDGE ( 'NONE', *, *, #248, .T. ) ;
#62 = CARTESIAN_POINT ( 'NONE',  ( 11.00000000000000000, 1.347111479062088405E-15, 0.000000000000000000 ) ) ;
#63 = ADVANCED_BREP_SHAPE_REPRESENTATION ( '3340', ( #134, #200 ), #36 ) ;
#64 = PERSON_AND_ORGANIZATION ( #185, #174 ) ;
#65 = COORDINATED_UNIVERSAL_TIME_OFFSET ( 1, 0, .AHEAD. ) ;
#66 = CARTESIAN_POINT ( 'NONE',  ( 0.000000000000000000, 0.000000000000000000, 7.000000000000000000 ) ) ;
#67 = CARTESIAN_POINT ( 'NONE',  ( 0.000000000000000000, 0.000000000000000000, 322.0000000000000000 ) ) ;
#68 = CARTESIAN_POINT ( 'NONE',  ( 0.000000000000000000, 0.000000000000000000, 322.0000000000000000 ) ) ;
#69 = AXIS2_PLACEMENT_3D ( 'NONE', #12, #191, #245 ) ;
#70 = ORIENTED_EDGE ( 'NONE', *, *, #224, .T. ) ;
#71 = CARTESIAN_POINT ( 'NONE',  ( -7.000000000000000000, 0.000000000000000000, 322.0000000000000000 ) ) ;
#72 = ORIENTED_EDGE ( 'NONE', *, *, #32, .F. ) ;
#73 = APPROVAL_PERSON_ORGANIZATION ( #77, #183, #149 ) ;
#74 = ORIENTED_EDGE ( 'NONE', *, *, #93, .T. ) ;
#75 = VERTEX_POINT ( 'NONE', #212 ) ;
#76 = AXIS2_PLACEMENT_3D ( 'NONE', #67, #226, #170 ) ;
#77 = PERSON_AND_ORGANIZATION ( #185, #174 ) ;
#78 = ADVANCED_FACE ( 'NONE', ( #85 ), #57, .T. ) ;
#79 = CARTESIAN_POINT ( 'NONE',  ( 0.000000000000000000, 0.000000000000000000, 0.000000000000000000 ) ) ;
#80 = AXIS2_PLACEMENT_3D ( 'NONE', #68, #109, #189 ) ;
#81 = PERSON_AND_ORGANIZATION ( #185, #174 ) ;
#82 = COORDINATED_UNIVERSAL_TIME_OFFSET ( 1, 0, .AHEAD. ) ;
#83 = CARTESIAN_POINT ( 'NONE',  ( 0.000000000000000000, 0.000000000000000000, 0.000000000000000000 ) ) ;
#84 = PRODUCT ( '3340', '3340', '', ( #239 ) ) ;
#85 = FACE_OUTER_BOUND ( 'NONE', #157, .T. ) ;
#86 = VECTOR ( 'NONE', #26, 1000.000000000000000 ) ;
#87 = DIRECTION ( 'NONE',  ( 1.000000000000000000, 0.000000000000000000, 0.000000000000000000 ) ) ;
#88 = APPROVAL ( #128, 'NEURÈENÝ' ) ;
#89 = DIRECTION ( 'NONE',  ( 0.000000000000000000, 0.000000000000000000, 1.000000000000000000 ) ) ;
#90 = VERTEX_POINT ( 'NONE', #158 ) ;
#91 = DIRECTION ( 'NONE',  ( -1.000000000000000000, 0.000000000000000000, 0.000000000000000000 ) ) ;
#92 = SECURITY_CLASSIFICATION ( '', '', #206 ) ;
#93 = EDGE_CURVE ( 'NONE', #35, #194, #95, .T. ) ;
#94 = PLANE ( 'NONE',  #18 ) ;
#95 = CIRCLE ( 'NONE', #117, 7.000000000000000000 ) ;
#96 = APPLICATION_CONTEXT ( 'configuration controlled 3d designs of mechanical parts and assemblies' ) ;
#97 = CLOSED_SHELL ( 'NONE', ( #126, #146, #2, #4, #52, #78, #164 ) ) ;
#98 =( NAMED_UNIT ( * ) PLANE_ANGLE_UNIT ( ) SI_UNIT ( $, .RADIAN. ) );
#99 = PERSON_AND_ORGANIZATION ( #185, #174 ) ;
#100 = VECTOR ( 'NONE', #209, 1000.000000000000000 ) ;
#101 =( LENGTH_UNIT ( ) NAMED_UNIT ( * ) SI_UNIT ( .MILLI., .METRE. ) );
#102 = CALENDAR_DATE ( 2022, 7, 7 ) ;
#103 = CALENDAR_DATE ( 2022, 7, 7 ) ;
#104 = EDGE_CURVE ( 'NONE', #75, #142, #9, .T. ) ;
#105 = CALENDAR_DATE ( 2022, 7, 7 ) ;
#106 = LOCAL_TIME ( 19, 13, 17.00000000000000000, #65 ) ;
#107 = DIRECTION ( 'NONE',  ( 0.000000000000000000, 0.000000000000000000, 1.000000000000000000 ) ) ;
#108 = DIRECTION ( 'NONE',  ( 1.000000000000000000, 0.000000000000000000, 0.000000000000000000 ) ) ;
#109 = DIRECTION ( 'NONE',  ( -0.000000000000000000, -0.000000000000000000, -1.000000000000000000 ) ) ;
#110 = LOCAL_TIME ( 19, 13, 17.00000000000000000, #221 ) ;
#111 = ORIENTED_EDGE ( 'NONE', *, *, #210, .F. ) ;
#112 = FACE_OUTER_BOUND ( 'NONE', #15, .T. ) ;
#113 = ORIENTED_EDGE ( 'NONE', *, *, #32, .T. ) ;
#114 = EDGE_LOOP ( 'NONE', ( #192, #72 ) ) ;
#115 = ORIENTED_EDGE ( 'NONE', *, *, #178, .F. ) ;
#116 = ORIENTED_EDGE ( 'NONE', *, *, #186, .F. ) ;
#117 = AXIS2_PLACEMENT_3D ( 'NONE', #13, #107, #108 ) ;
#118 = CC_DESIGN_DATE_AND_TIME_ASSIGNMENT ( #29, #11, ( #92 ) ) ;
#119 = AXIS2_PLACEMENT_3D ( 'NONE', #33, #187, #58 ) ;
#120 = EDGE_CURVE ( 'NONE', #190, #59, #43, .T. ) ;
#121 = CARTESIAN_POINT ( 'NONE',  ( 7.000000000000000000, 8.572527594031473190E-16, 322.0000000000000000 ) ) ;
#122 = PERSON_AND_ORGANIZATION_ROLE ( 'design_owner' ) ;
#123 = APPROVAL_PERSON_ORGANIZATION ( #64, #201, #199 ) ;
#124 = DATE_TIME_ROLE ( 'creation_date' ) ;
#125 = CALENDAR_DATE ( 2022, 7, 7 ) ;
#126 = ADVANCED_FACE ( 'NONE', ( #14 ), #150, .T. ) ;
#127 = UNCERTAINTY_MEASURE_WITH_UNIT (LENGTH_MEASURE( 1.000000000000000082E-05 ), #101, 'distance_accuracy_value', 'NONE');
#128 = APPROVAL_STATUS ( 'not_yet_approved' ) ;
#129 = DIRECTION ( 'NONE',  ( 1.000000000000000000, 0.000000000000000000, 0.000000000000000000 ) ) ;
#130 = PERSON_AND_ORGANIZATION ( #185, #174 ) ;
#131 = APPROVAL_PERSON_ORGANIZATION ( #165, #88, #203 ) ;
#132 = CARTESIAN_POINT ( 'NONE',  ( 0.000000000000000000, 0.000000000000000000, 7.000000000000000000 ) ) ;
#133 = PERSON_AND_ORGANIZATION_ROLE ( 'creator' ) ;
#134 = MANIFOLD_SOLID_BREP ( 'Pøidat vysunutím3', #97 ) ;
#135 = EDGE_CURVE ( 'NONE', #59, #190, #251, .T. ) ;
#136 = FACE_OUTER_BOUND ( 'NONE', #114, .T. ) ;
#137 = ORIENTED_EDGE ( 'NONE', *, *, #135, .T. ) ;
#138 = DIRECTION ( 'NONE',  ( 1.000000000000000000, 0.000000000000000000, 0.000000000000000000 ) ) ;
#139 = ORIENTED_EDGE ( 'NONE', *, *, #135, .F. ) ;
#140 = CARTESIAN_POINT ( 'NONE',  ( -7.000000000000000000, 0.000000000000000000, 7.000000000000000000 ) ) ;
#141 = FACE_OUTER_BOUND ( 'NONE', #60, .T. ) ;
#142 = VERTEX_POINT ( 'NONE', #31 ) ;
#143 = ORIENTED_EDGE ( 'NONE', *, *, #210, .T. ) ;
#144 = AXIS2_PLACEMENT_3D ( 'NONE', #39, #51, #225 ) ;
#145 = DESIGN_CONTEXT ( 'detailed design', #96, 'design' ) ;
#146 = ADVANCED_FACE ( 'NONE', ( #230 ), #53, .T. ) ;
#147 = DIRECTION ( 'NONE',  ( 1.000000000000000000, 0.000000000000000000, 0.000000000000000000 ) ) ;
#148 = DIRECTION ( 'NONE',  ( -0.000000000000000000, -0.000000000000000000, -1.000000000000000000 ) ) ;
#149 = APPROVAL_ROLE ( '' ) ;
#150 = CYLINDRICAL_SURFACE ( 'NONE', #144, 7.000000000000000000 ) ;
#151 = PERSON_AND_ORGANIZATION_ROLE ( 'design_supplier' ) ;
#152 = CC_DESIGN_PERSON_AND_ORGANIZATION_ASSIGNMENT ( #49, #122, ( #84 ) ) ;
#153 = DIRECTION ( 'NONE',  ( 0.000000000000000000, 0.000000000000000000, 1.000000000000000000 ) ) ;
#154 = PRODUCT_RELATED_PRODUCT_CATEGORY ( 'detail', '', ( #84 ) ) ;
#155 = AXIS2_PLACEMENT_3D ( 'NONE', #66, #89, #138 ) ;
#156 = CARTESIAN_POINT ( 'NONE',  ( 7.000000000000000000, 8.572527594031473190E-16, 322.0000000000000000 ) ) ;
#157 = EDGE_LOOP ( 'NONE', ( #41, #115, #233, #137 ) ) ;
#158 = CARTESIAN_POINT ( 'NONE',  ( -11.00000000000000000, 0.000000000000000000, 0.000000000000000000 ) ) ;
#159 = CARTESIAN_POINT ( 'NONE',  ( 0.000000000000000000, 0.000000000000000000, 7.000000000000000000 ) ) ;
#160 = ORIENTED_EDGE ( 'NONE', *, *, #104, .F. ) ;
#161 = DIRECTION ( 'NONE',  ( 1.000000000000000000, 0.000000000000000000, -0.000000000000000000 ) ) ;
#162 = CARTESIAN_POINT ( 'NONE',  ( 0.000000000000000000, 0.000000000000000000, 7.000000000000000000 ) ) ;
#163 = APPROVAL_STATUS ( 'not_yet_approved' ) ;
#164 = ADVANCED_FACE ( 'NONE', ( #112 ), #247, .T. ) ;
#165 = PERSON_AND_ORGANIZATION ( #185, #174 ) ;
#166 = DIRECTION ( 'NONE',  ( 1.000000000000000000, 0.000000000000000000, -0.000000000000000000 ) ) ;
#167 = CALENDAR_DATE ( 2022, 7, 7 ) ;
#168 = PRODUCT_DEFINITION_SHAPE ( 'NONE', 'NONE',  #27 ) ;
#169 = DIRECTION ( 'NONE',  ( 0.000000000000000000, 0.000000000000000000, 1.000000000000000000 ) ) ;
#170 = DIRECTION ( 'NONE',  ( 1.000000000000000000, 0.000000000000000000, -0.000000000000000000 ) ) ;
#171 = ORIENTED_EDGE ( 'NONE', *, *, #178, .T. ) ;
#172 = LINE ( 'NONE', #207, #222 ) ;
#173 = EDGE_LOOP ( 'NONE', ( #17, #61, #232, #250 ) ) ;
#174 = ORGANIZATION ( 'NEURÈENÝ', 'NEURÈENÝ', '' ) ;
#175 = ORIENTED_EDGE ( 'NONE', *, *, #120, .F. ) ;
#176 = CARTESIAN_POINT ( 'NONE',  ( 0.000000000000000000, 0.000000000000000000, 7.000000000000000000 ) ) ;
#177 = EDGE_CURVE ( 'NONE', #194, #59, #172, .T. ) ;
#178 = EDGE_CURVE ( 'NONE', #194, #35, #22, .T. ) ;
#179 = DIRECTION ( 'NONE',  ( 0.000000000000000000, 0.000000000000000000, 1.000000000000000000 ) ) ;
#180 = COORDINATED_UNIVERSAL_TIME_OFFSET ( 1, 0, .AHEAD. ) ;
#181 = CARTESIAN_POINT ( 'NONE',  ( 0.000000000000000000, 0.000000000000000000, 0.000000000000000000 ) ) ;
#182 = DATE_AND_TIME ( #102, #204 ) ;
#183 = APPROVAL ( #243, 'NEURÈENÝ' ) ;
#184 = COORDINATED_UNIVERSAL_TIME_OFFSET ( 1, 0, .AHEAD. ) ;
#185 = PERSON ( 'NEURÈENÝ', 'NEURÈENÝ', 'NEURÈENÝ', ('NEURÈENÝ'), ('NEURÈENÝ'), ('NEURÈENÝ') ) ;
#186 = EDGE_CURVE ( 'NONE', #142, #90, #188, .T. ) ;
#187 = DIRECTION ( 'NONE',  ( 0.000000000000000000, 0.000000000000000000, 1.000000000000000000 ) ) ;
#188 = LINE ( 'NONE', #249, #100 ) ;
#189 = DIRECTION ( 'NONE',  ( -1.000000000000000000, 0.000000000000000000, 0.000000000000000000 ) ) ;
#190 = VERTEX_POINT ( 'NONE', #34 ) ;
#191 = DIRECTION ( 'NONE',  ( 0.000000000000000000, 0.000000000000000000, 1.000000000000000000 ) ) ;
#192 = ORIENTED_EDGE ( 'NONE', *, *, #224, .F. ) ;
#193 = CIRCLE ( 'NONE', #208, 11.00000000000000000 ) ;
#194 = VERTEX_POINT ( 'NONE', #71 ) ;
#195 = APPLICATION_CONTEXT ( 'configuration controlled 3d designs of mechanical parts and assemblies' ) ;
#196 = CC_DESIGN_APPROVAL ( #201, ( #27 ) ) ;
#197 = FACE_OUTER_BOUND ( 'NONE', #218, .T. ) ;
#198 = CC_DESIGN_PERSON_AND_ORGANIZATION_ASSIGNMENT ( #81, #50, ( #92 ) ) ;
#199 = APPROVAL_ROLE ( '' ) ;
#200 = AXIS2_PLACEMENT_3D ( 'NONE', #79, #46, #241 ) ;
#201 = APPROVAL ( #163, 'NEURÈENÝ' ) ;
#202 = AXIS2_PLACEMENT_3D ( 'NONE', #205, #153, #87 ) ;
#203 = APPROVAL_ROLE ( '' ) ;
#204 = LOCAL_TIME ( 19, 13, 17.00000000000000000, #180 ) ;
#205 = CARTESIAN_POINT ( 'NONE',  ( 0.000000000000000000, 0.000000000000000000, 7.000000000000000000 ) ) ;
#206 = SECURITY_CLASSIFICATION_LEVEL ( 'unclassified' ) ;
#207 = CARTESIAN_POINT ( 'NONE',  ( -7.000000000000000000, 0.000000000000000000, 322.0000000000000000 ) ) ;
#208 = AXIS2_PLACEMENT_3D ( 'NONE', #37, #169, #129 ) ;
#209 = DIRECTION ( 'NONE',  ( -0.000000000000000000, -0.000000000000000000, -1.000000000000000000 ) ) ;
#210 = EDGE_CURVE ( 'NONE', #142, #75, #44, .T. ) ;
#211 = ORIENTED_EDGE ( 'NONE', *, *, #186, .T. ) ;
#212 = CARTESIAN_POINT ( 'NONE',  ( 11.00000000000000000, 1.347111479062088405E-15, 7.000000000000000000 ) ) ;
#213 = VERTEX_POINT ( 'NONE', #62 ) ;
#214 = PLANE ( 'NONE',  #56 ) ;
#215 = DIRECTION ( 'NONE',  ( -0.000000000000000000, -0.000000000000000000, -1.000000000000000000 ) ) ;
#216 = ORIENTED_EDGE ( 'NONE', *, *, #104, .T. ) ;
#217 = VECTOR ( 'NONE', #148, 1000.000000000000000 ) ;
#218 = EDGE_LOOP ( 'NONE', ( #143, #216 ) ) ;
#219 = CARTESIAN_POINT ( 'NONE',  ( 11.00000000000000000, 1.347111479062088405E-15, 7.000000000000000000 ) ) ;
#220 = DATE_AND_TIME ( #125, #106 ) ;
#221 = COORDINATED_UNIVERSAL_TIME_OFFSET ( 1, 0, .AHEAD. ) ;
#222 = VECTOR ( 'NONE', #252, 1000.000000000000000 ) ;
#223 = PERSON_AND_ORGANIZATION ( #185, #174 ) ;
#224 = EDGE_CURVE ( 'NONE', #90, #213, #30, .T. ) ;
#225 = DIRECTION ( 'NONE',  ( -1.000000000000000000, 0.000000000000000000, 0.000000000000000000 ) ) ;
#226 = DIRECTION ( 'NONE',  ( 0.000000000000000000, 0.000000000000000000, 1.000000000000000000 ) ) ;
#227 = CC_DESIGN_DATE_AND_TIME_ASSIGNMENT ( #182, #124, ( #27 ) ) ;
#228 = DIRECTION ( 'NONE',  ( -1.000000000000000000, 0.000000000000000000, 0.000000000000000000 ) ) ;
#229 = EDGE_LOOP ( 'NONE', ( #139, #175 ) ) ;
#230 = FACE_OUTER_BOUND ( 'NONE', #38, .T. ) ;
#231 = AXIS2_PLACEMENT_3D ( 'NONE', #181, #179, #147 ) ;
#232 = ORIENTED_EDGE ( 'NONE', *, *, #120, .T. ) ;
#233 = ORIENTED_EDGE ( 'NONE', *, *, #177, .T. ) ;
#234 = AXIS2_PLACEMENT_3D ( 'NONE', #132, #55, #228 ) ;
#235 = CC_DESIGN_PERSON_AND_ORGANIZATION_ASSIGNMENT ( #130, #133, ( #10 ) ) ;
#236 = LOCAL_TIME ( 19, 13, 17.00000000000000000, #184 ) ;
#237 = DIRECTION ( 'NONE',  ( 0.000000000000000000, 0.000000000000000000, 1.000000000000000000 ) ) ;
#238 = EDGE_CURVE ( 'NONE', #75, #213, #3, .T. ) ;
#239 = MECHANICAL_CONTEXT ( 'NONE', #195, 'mechanical' ) ;
#240 =( NAMED_UNIT ( * ) SI_UNIT ( $, .STERADIAN. ) SOLID_ANGLE_UNIT ( ) );
#241 = DIRECTION ( 'NONE',  ( 1.000000000000000000, 0.000000000000000000, 0.000000000000000000 ) ) ;
#242 = DATE_AND_TIME ( #167, #254 ) ;
#243 = APPROVAL_STATUS ( 'not_yet_approved' ) ;
#244 = AXIS2_PLACEMENT_3D ( 'NONE', #159, #215, #91 ) ;
#245 = DIRECTION ( 'NONE',  ( 1.000000000000000000, 0.000000000000000000, 0.000000000000000000 ) ) ;
#246 = DATE_AND_TIME ( #103, #110 ) ;
#247 = PLANE ( 'NONE',  #76 ) ;
#248 = EDGE_CURVE ( 'NONE', #35, #190, #45, .T. ) ;
#249 = CARTESIAN_POINT ( 'NONE',  ( -11.00000000000000000, 0.000000000000000000, 7.000000000000000000 ) ) ;
#250 = ORIENTED_EDGE ( 'NONE', *, *, #177, .F. ) ;
#251 = CIRCLE ( 'NONE', #202, 7.000000000000000000 ) ;
#252 = DIRECTION ( 'NONE',  ( -0.000000000000000000, -0.000000000000000000, -1.000000000000000000 ) ) ;
#253 = CYLINDRICAL_SURFACE ( 'NONE', #244, 11.00000000000000000 ) ;
#254 = LOCAL_TIME ( 19, 13, 17.00000000000000000, #82 ) ;
#255 = FACE_BOUND ( 'NONE', #229, .T. ) ;
ENDSEC;
END-ISO-10303-21;
