ISO-10303-21;
HEADER;
FILE_DESCRIPTION (( 'STEP AP203' ),
    '1' );
FILE_NAME ('6479.STEP',
    '2022-07-07T17:11:53',
    ( '' ),
    ( '' ),
    'SwSTEP 2.0',
    'SolidWorks 2019',
    '' );
FILE_SCHEMA (( 'CONFIG_CONTROL_DESIGN' ));
ENDSEC;

DATA;
#1 = CC_DESIGN_DATE_AND_TIME_ASSIGNMENT ( #91, #168, ( #241 ) ) ;
#2 = CARTESIAN_POINT ( 'NONE',  ( 11.00000000000000000, 1.347111479062088405E-15, 7.000000000000000000 ) ) ;
#3 = ORIENTED_EDGE ( 'NONE', *, *, #19, .T. ) ;
#4 = VERTEX_POINT ( 'NONE', #145 ) ;
#5 = APPLICATION_CONTEXT ( 'configuration controlled 3d designs of mechanical parts and assemblies' ) ;
#6 = PERSON_AND_ORGANIZATION ( #87, #181 ) ;
#7 = COORDINATED_UNIVERSAL_TIME_OFFSET ( 1, 0, .AHEAD. ) ;
#8 = DIRECTION ( 'NONE',  ( -0.000000000000000000, -0.000000000000000000, -1.000000000000000000 ) ) ;
#9 = SECURITY_CLASSIFICATION_LEVEL ( 'unclassified' ) ;
#10 = CIRCLE ( 'NONE', #159, 11.00000000000000000 ) ;
#11 = APPROVAL_DATE_TIME ( #189, #201 ) ;
#12 = CARTESIAN_POINT ( 'NONE',  ( 0.000000000000000000, 0.000000000000000000, 407.0000000000000000 ) ) ;
#13 = DIRECTION ( 'NONE',  ( 0.000000000000000000, 0.000000000000000000, 1.000000000000000000 ) ) ;
#14 = CARTESIAN_POINT ( 'NONE',  ( 0.000000000000000000, 0.000000000000000000, 7.000000000000000000 ) ) ;
#15 = DIRECTION ( 'NONE',  ( 0.000000000000000000, 0.000000000000000000, 1.000000000000000000 ) ) ;
#16 = AXIS2_PLACEMENT_3D ( 'NONE', #244, #15, #119 ) ;
#17 = DIRECTION ( 'NONE',  ( -1.000000000000000000, 0.000000000000000000, 0.000000000000000000 ) ) ;
#18 = MANIFOLD_SOLID_BREP ( 'Pøidat vysunutím3', #128 ) ;
#19 = EDGE_CURVE ( 'NONE', #26, #46, #85, .T. ) ;
#20 = CIRCLE ( 'NONE', #47, 11.00000000000000000 ) ;
#21 = CARTESIAN_POINT ( 'NONE',  ( 0.000000000000000000, 0.000000000000000000, 0.000000000000000000 ) ) ;
#22 = EDGE_CURVE ( 'NONE', #61, #46, #249, .T. ) ;
#23 = ORIENTED_EDGE ( 'NONE', *, *, #216, .F. ) ;
#24 = AXIS2_PLACEMENT_3D ( 'NONE', #162, #13, #227 ) ;
#25 = ORIENTED_EDGE ( 'NONE', *, *, #197, .F. ) ;
#26 = VERTEX_POINT ( 'NONE', #2 ) ;
#27 = ORIENTED_EDGE ( 'NONE', *, *, #68, .T. ) ;
#28 = CC_DESIGN_APPROVAL ( #217, ( #241 ) ) ;
#29 = CALENDAR_DATE ( 2022, 7, 7 ) ;
#30 = APPROVAL_ROLE ( '' ) ;
#31 = APPLICATION_PROTOCOL_DEFINITION ( 'international standard', 'config_control_design', 1994, #5 ) ;
#32 = COORDINATED_UNIVERSAL_TIME_OFFSET ( 1, 0, .AHEAD. ) ;
#33 = DIRECTION ( 'NONE',  ( 0.000000000000000000, 0.000000000000000000, 1.000000000000000000 ) ) ;
#34 = DIRECTION ( 'NONE',  ( 1.000000000000000000, 0.000000000000000000, 0.000000000000000000 ) ) ;
#35 = DIRECTION ( 'NONE',  ( -0.000000000000000000, -0.000000000000000000, -1.000000000000000000 ) ) ;
#36 = DIRECTION ( 'NONE',  ( -1.000000000000000000, 0.000000000000000000, 0.000000000000000000 ) ) ;
#37 = CARTESIAN_POINT ( 'NONE',  ( 0.000000000000000000, 0.000000000000000000, 7.000000000000000000 ) ) ;
#38 = PRODUCT_DEFINITION_FORMATION_WITH_SPECIFIED_SOURCE ( 'LIBOVOLNÝ', '', #84, .NOT_KNOWN. ) ;
#39 = EDGE_CURVE ( 'NONE', #214, #146, #231, .T. ) ;
#40 = VECTOR ( 'NONE', #224, 1000.000000000000000 ) ;
#41 = VERTEX_POINT ( 'NONE', #194 ) ;
#42 = ORIENTED_EDGE ( 'NONE', *, *, #22, .F. ) ;
#43 = PRODUCT_DEFINITION_SHAPE ( 'NONE', 'NONE',  #184 ) ;
#44 = AXIS2_PLACEMENT_3D ( 'NONE', #14, #118, #153 ) ;
#45 = ORIENTED_EDGE ( 'NONE', *, *, #197, .T. ) ;
#46 = VERTEX_POINT ( 'NONE', #136 ) ;
#47 = AXIS2_PLACEMENT_3D ( 'NONE', #37, #72, #176 ) ;
#48 =( GEOMETRIC_REPRESENTATION_CONTEXT ( 3 ) GLOBAL_UNCERTAINTY_ASSIGNED_CONTEXT ( ( #133 ) ) GLOBAL_UNIT_ASSIGNED_CONTEXT ( ( #111, #247, #150 ) ) REPRESENTATION_CONTEXT ( 'NONE', 'WORKASPACE' ) );
#49 = COORDINATED_UNIVERSAL_TIME_OFFSET ( 1, 0, .AHEAD. ) ;
#50 = DIRECTION ( 'NONE',  ( 0.000000000000000000, 0.000000000000000000, 1.000000000000000000 ) ) ;
#51 = ADVANCED_BREP_SHAPE_REPRESENTATION ( '6479', ( #18, #232 ), #48 ) ;
#52 = DIRECTION ( 'NONE',  ( -0.000000000000000000, -0.000000000000000000, -1.000000000000000000 ) ) ;
#53 = APPROVAL_ROLE ( '' ) ;
#54 = FACE_OUTER_BOUND ( 'NONE', #198, .T. ) ;
#55 = APPROVAL_PERSON_ORGANIZATION ( #190, #217, #30 ) ;
#56 = PERSON_AND_ORGANIZATION ( #87, #181 ) ;
#57 = DIRECTION ( 'NONE',  ( -0.000000000000000000, -0.000000000000000000, -1.000000000000000000 ) ) ;
#58 = CARTESIAN_POINT ( 'NONE',  ( -7.250000000000000000, 0.000000000000000000, 407.0000000000000000 ) ) ;
#59 = CYLINDRICAL_SURFACE ( 'NONE', #105, 7.250000000000000000 ) ;
#60 = AXIS2_PLACEMENT_3D ( 'NONE', #242, #8, #131 ) ;
#61 = VERTEX_POINT ( 'NONE', #77 ) ;
#62 = ORIENTED_EDGE ( 'NONE', *, *, #235, .F. ) ;
#63 = CARTESIAN_POINT ( 'NONE',  ( 11.00000000000000000, 1.347111479062088405E-15, 7.000000000000000000 ) ) ;
#64 = EDGE_CURVE ( 'NONE', #4, #61, #221, .T. ) ;
#65 = CIRCLE ( 'NONE', #205, 7.250000000000000000 ) ;
#66 = ORIENTED_EDGE ( 'NONE', *, *, #64, .T. ) ;
#67 = PERSON_AND_ORGANIZATION_ROLE ( 'classification_officer' ) ;
#68 = EDGE_CURVE ( 'NONE', #41, #238, #65, .T. ) ;
#69 = LOCAL_TIME ( 19, 11, 53.00000000000000000, #73 ) ;
#70 = APPROVAL_STATUS ( 'not_yet_approved' ) ;
#71 = DIRECTION ( 'NONE',  ( 1.000000000000000000, 0.000000000000000000, 0.000000000000000000 ) ) ;
#72 = DIRECTION ( 'NONE',  ( 0.000000000000000000, 0.000000000000000000, 1.000000000000000000 ) ) ;
#73 = COORDINATED_UNIVERSAL_TIME_OFFSET ( 1, 0, .AHEAD. ) ;
#74 = CARTESIAN_POINT ( 'NONE',  ( 0.000000000000000000, 0.000000000000000000, 7.000000000000000000 ) ) ;
#75 = CC_DESIGN_PERSON_AND_ORGANIZATION_ASSIGNMENT ( #203, #157, ( #184 ) ) ;
#76 = PERSON_AND_ORGANIZATION_ROLE ( 'design_owner' ) ;
#77 = CARTESIAN_POINT ( 'NONE',  ( -11.00000000000000000, 0.000000000000000000, 0.000000000000000000 ) ) ;
#78 = APPROVAL_PERSON_ORGANIZATION ( #167, #185, #109 ) ;
#79 = CALENDAR_DATE ( 2022, 7, 7 ) ;
#80 = CARTESIAN_POINT ( 'NONE',  ( 0.000000000000000000, 0.000000000000000000, 407.0000000000000000 ) ) ;
#81 = DIRECTION ( 'NONE',  ( -0.000000000000000000, -0.000000000000000000, -1.000000000000000000 ) ) ;
#82 = LOCAL_TIME ( 19, 11, 53.00000000000000000, #49 ) ;
#83 = ORIENTED_EDGE ( 'NONE', *, *, #235, .T. ) ;
#84 = PRODUCT ( '6479', '6479', '', ( #129 ) ) ;
#85 = LINE ( 'NONE', #63, #112 ) ;
#86 = ADVANCED_FACE ( 'NONE', ( #172 ), #204, .F. ) ;
#87 = PERSON ( 'NEURÈENÝ', 'NEURÈENÝ', 'NEURÈENÝ', ('NEURÈENÝ'), ('NEURÈENÝ'), ('NEURÈENÝ') ) ;
#88 = DIRECTION ( 'NONE',  ( -0.000000000000000000, -0.000000000000000000, -1.000000000000000000 ) ) ;
#89 = CIRCLE ( 'NONE', #225, 7.250000000000000000 ) ;
#90 = ADVANCED_FACE ( 'NONE', ( #156, #207 ), #132, .T. ) ;
#91 = DATE_AND_TIME ( #92, #143 ) ;
#92 = CALENDAR_DATE ( 2022, 7, 7 ) ;
#93 = FACE_OUTER_BOUND ( 'NONE', #202, .T. ) ;
#94 = DIRECTION ( 'NONE',  ( 1.000000000000000000, 0.000000000000000000, 0.000000000000000000 ) ) ;
#95 = APPROVAL_DATE_TIME ( #220, #185 ) ;
#96 = DIRECTION ( 'NONE',  ( 1.000000000000000000, 0.000000000000000000, -0.000000000000000000 ) ) ;
#97 = CC_DESIGN_PERSON_AND_ORGANIZATION_ASSIGNMENT ( #6, #67, ( #241 ) ) ;
#98 = FACE_OUTER_BOUND ( 'NONE', #236, .T. ) ;
#99 = DIRECTION ( 'NONE',  ( 0.000000000000000000, 0.000000000000000000, 1.000000000000000000 ) ) ;
#100 = DIRECTION ( 'NONE',  ( 1.000000000000000000, 0.000000000000000000, -0.000000000000000000 ) ) ;
#101 = CARTESIAN_POINT ( 'NONE',  ( 7.250000000000000000, 8.878689293818310074E-16, 7.000000000000000000 ) ) ;
#102 = AXIS2_PLACEMENT_3D ( 'NONE', #115, #139, #100 ) ;
#103 = EDGE_LOOP ( 'NONE', ( #182, #183 ) ) ;
#104 = ORIENTED_EDGE ( 'NONE', *, *, #39, .F. ) ;
#105 = AXIS2_PLACEMENT_3D ( 'NONE', #120, #196, #17 ) ;
#106 = EDGE_LOOP ( 'NONE', ( #62, #104 ) ) ;
#107 = ORIENTED_EDGE ( 'NONE', *, *, #113, .F. ) ;
#108 = APPROVAL_PERSON_ORGANIZATION ( #56, #201, #53 ) ;
#109 = APPROVAL_ROLE ( '' ) ;
#110 = CALENDAR_DATE ( 2022, 7, 7 ) ;
#111 =( LENGTH_UNIT ( ) NAMED_UNIT ( * ) SI_UNIT ( .MILLI., .METRE. ) );
#112 = VECTOR ( 'NONE', #88, 1000.000000000000000 ) ;
#113 = EDGE_CURVE ( 'NONE', #46, #61, #237, .T. ) ;
#114 = PERSON_AND_ORGANIZATION_ROLE ( 'design_supplier' ) ;
#115 = CARTESIAN_POINT ( 'NONE',  ( 0.000000000000000000, 0.000000000000000000, 7.000000000000000000 ) ) ;
#116 = PERSON_AND_ORGANIZATION ( #87, #181 ) ;
#117 = LINE ( 'NONE', #154, #40 ) ;
#118 = DIRECTION ( 'NONE',  ( 0.000000000000000000, 0.000000000000000000, 1.000000000000000000 ) ) ;
#119 = DIRECTION ( 'NONE',  ( 1.000000000000000000, 0.000000000000000000, -0.000000000000000000 ) ) ;
#120 = CARTESIAN_POINT ( 'NONE',  ( 0.000000000000000000, 0.000000000000000000, 407.0000000000000000 ) ) ;
#121 = CC_DESIGN_APPROVAL ( #185, ( #38 ) ) ;
#122 = ORIENTED_EDGE ( 'NONE', *, *, #64, .F. ) ;
#123 = DIRECTION ( 'NONE',  ( 1.000000000000000000, 0.000000000000000000, 0.000000000000000000 ) ) ;
#124 = ORIENTED_EDGE ( 'NONE', *, *, #19, .F. ) ;
#125 = ORIENTED_EDGE ( 'NONE', *, *, #206, .F. ) ;
#126 = EDGE_LOOP ( 'NONE', ( #42, #107 ) ) ;
#127 = SHAPE_DEFINITION_REPRESENTATION ( #43, #51 ) ;
#128 = CLOSED_SHELL ( 'NONE', ( #229, #178, #222, #90, #86, #213, #165 ) ) ;
#129 = MECHANICAL_CONTEXT ( 'NONE', #255, 'mechanical' ) ;
#130 = CC_DESIGN_DATE_AND_TIME_ASSIGNMENT ( #228, #223, ( #184 ) ) ;
#131 = DIRECTION ( 'NONE',  ( -1.000000000000000000, 0.000000000000000000, 0.000000000000000000 ) ) ;
#132 = PLANE ( 'NONE',  #102 ) ;
#133 = UNCERTAINTY_MEASURE_WITH_UNIT (LENGTH_MEASURE( 1.000000000000000082E-05 ), #111, 'distance_accuracy_value', 'NONE');
#134 = CARTESIAN_POINT ( 'NONE',  ( 0.000000000000000000, 0.000000000000000000, 7.000000000000000000 ) ) ;
#135 = AXIS2_PLACEMENT_3D ( 'NONE', #246, #248, #140 ) ;
#136 = CARTESIAN_POINT ( 'NONE',  ( 11.00000000000000000, 1.347111479062088405E-15, 0.000000000000000000 ) ) ;
#137 = APPROVAL_STATUS ( 'not_yet_approved' ) ;
#138 = EDGE_CURVE ( 'NONE', #4, #26, #20, .T. ) ;
#139 = DIRECTION ( 'NONE',  ( 0.000000000000000000, 0.000000000000000000, 1.000000000000000000 ) ) ;
#140 = DIRECTION ( 'NONE',  ( 1.000000000000000000, 0.000000000000000000, 0.000000000000000000 ) ) ;
#141 = AXIS2_PLACEMENT_3D ( 'NONE', #21, #180, #123 ) ;
#142 = CC_DESIGN_PERSON_AND_ORGANIZATION_ASSIGNMENT ( #186, #114, ( #38 ) ) ;
#143 = LOCAL_TIME ( 19, 11, 53.00000000000000000, #7 ) ;
#144 = ORIENTED_EDGE ( 'NONE', *, *, #206, .T. ) ;
#145 = CARTESIAN_POINT ( 'NONE',  ( -11.00000000000000000, 0.000000000000000000, 7.000000000000000000 ) ) ;
#146 = VERTEX_POINT ( 'NONE', #252 ) ;
#147 = ORIENTED_EDGE ( 'NONE', *, *, #113, .T. ) ;
#148 = DATE_AND_TIME ( #110, #212 ) ;
#149 = DIRECTION ( 'NONE',  ( -1.000000000000000000, 0.000000000000000000, 0.000000000000000000 ) ) ;
#150 =( NAMED_UNIT ( * ) SI_UNIT ( $, .STERADIAN. ) SOLID_ANGLE_UNIT ( ) );
#151 = CALENDAR_DATE ( 2022, 7, 7 ) ;
#152 = CYLINDRICAL_SURFACE ( 'NONE', #164, 11.00000000000000000 ) ;
#153 = DIRECTION ( 'NONE',  ( 1.000000000000000000, 0.000000000000000000, 0.000000000000000000 ) ) ;
#154 = CARTESIAN_POINT ( 'NONE',  ( 7.250000000000000000, 8.878689293818310074E-16, 407.0000000000000000 ) ) ;
#155 = DESIGN_CONTEXT ( 'detailed design', #5, 'design' ) ;
#156 = FACE_BOUND ( 'NONE', #106, .T. ) ;
#157 = PERSON_AND_ORGANIZATION_ROLE ( 'creator' ) ;
#158 = DIRECTION ( 'NONE',  ( 0.000000000000000000, 0.000000000000000000, 1.000000000000000000 ) ) ;
#159 = AXIS2_PLACEMENT_3D ( 'NONE', #170, #50, #71 ) ;
#160 = VECTOR ( 'NONE', #52, 1000.000000000000000 ) ;
#161 = EDGE_LOOP ( 'NONE', ( #45, #27 ) ) ;
#162 = CARTESIAN_POINT ( 'NONE',  ( 0.000000000000000000, 0.000000000000000000, 7.000000000000000000 ) ) ;
#163 = ORIENTED_EDGE ( 'NONE', *, *, #216, .T. ) ;
#164 = AXIS2_PLACEMENT_3D ( 'NONE', #74, #57, #36 ) ;
#165 = ADVANCED_FACE ( 'NONE', ( #191 ), #210, .T. ) ;
#166 = APPROVAL_DATE_TIME ( #148, #217 ) ;
#167 = PERSON_AND_ORGANIZATION ( #87, #181 ) ;
#168 = DATE_TIME_ROLE ( 'classification_date' ) ;
#169 = CYLINDRICAL_SURFACE ( 'NONE', #226, 11.00000000000000000 ) ;
#170 = CARTESIAN_POINT ( 'NONE',  ( 0.000000000000000000, 0.000000000000000000, 7.000000000000000000 ) ) ;
#171 = CARTESIAN_POINT ( 'NONE',  ( 0.000000000000000000, 0.000000000000000000, 407.0000000000000000 ) ) ;
#172 = FACE_OUTER_BOUND ( 'NONE', #126, .T. ) ;
#173 = CC_DESIGN_PERSON_AND_ORGANIZATION_ASSIGNMENT ( #116, #76, ( #84 ) ) ;
#174 = DIRECTION ( 'NONE',  ( 0.000000000000000000, 0.000000000000000000, 1.000000000000000000 ) ) ;
#175 = CC_DESIGN_SECURITY_CLASSIFICATION ( #241, ( #38 ) ) ;
#176 = DIRECTION ( 'NONE',  ( 1.000000000000000000, 0.000000000000000000, 0.000000000000000000 ) ) ;
#177 = LINE ( 'NONE', #253, #239 ) ;
#178 = ADVANCED_FACE ( 'NONE', ( #230 ), #152, .T. ) ;
#179 = ORIENTED_EDGE ( 'NONE', *, *, #22, .T. ) ;
#180 = DIRECTION ( 'NONE',  ( 0.000000000000000000, 0.000000000000000000, 1.000000000000000000 ) ) ;
#181 = ORGANIZATION ( 'NEURÈENÝ', 'NEURÈENÝ', '' ) ;
#182 = ORIENTED_EDGE ( 'NONE', *, *, #138, .T. ) ;
#183 = ORIENTED_EDGE ( 'NONE', *, *, #254, .T. ) ;
#184 = PRODUCT_DEFINITION ( 'NEZNÁMÝ', '', #38, #155 ) ;
#185 = APPROVAL ( #70, 'NEURÈENÝ' ) ;
#186 = PERSON_AND_ORGANIZATION ( #87, #181 ) ;
#187 = PERSON_AND_ORGANIZATION_ROLE ( 'creator' ) ;
#188 = LOCAL_TIME ( 19, 11, 53.00000000000000000, #251 ) ;
#189 = DATE_AND_TIME ( #79, #188 ) ;
#190 = PERSON_AND_ORGANIZATION ( #87, #181 ) ;
#191 = FACE_OUTER_BOUND ( 'NONE', #161, .T. ) ;
#192 = DIRECTION ( 'NONE',  ( 1.000000000000000000, 0.000000000000000000, 0.000000000000000000 ) ) ;
#193 = CARTESIAN_POINT ( 'NONE',  ( 0.000000000000000000, 0.000000000000000000, 0.000000000000000000 ) ) ;
#194 = CARTESIAN_POINT ( 'NONE',  ( 7.250000000000000000, 8.878689293818310074E-16, 407.0000000000000000 ) ) ;
#195 = AXIS2_PLACEMENT_3D ( 'NONE', #12, #99, #96 ) ;
#196 = DIRECTION ( 'NONE',  ( -0.000000000000000000, -0.000000000000000000, -1.000000000000000000 ) ) ;
#197 = EDGE_CURVE ( 'NONE', #238, #41, #89, .T. ) ;
#198 = EDGE_LOOP ( 'NONE', ( #125, #25, #163, #83 ) ) ;
#199 = ORIENTED_EDGE ( 'NONE', *, *, #68, .F. ) ;
#200 = ORIENTED_EDGE ( 'NONE', *, *, #39, .T. ) ;
#201 = APPROVAL ( #137, 'NEURÈENÝ' ) ;
#202 = EDGE_LOOP ( 'NONE', ( #124, #215, #66, #179 ) ) ;
#203 = PERSON_AND_ORGANIZATION ( #87, #181 ) ;
#204 = PLANE ( 'NONE',  #16 ) ;
#205 = AXIS2_PLACEMENT_3D ( 'NONE', #171, #33, #192 ) ;
#206 = EDGE_CURVE ( 'NONE', #41, #214, #117, .T. ) ;
#207 = FACE_OUTER_BOUND ( 'NONE', #103, .T. ) ;
#208 = APPLICATION_PROTOCOL_DEFINITION ( 'international standard', 'config_control_design', 1994, #255 ) ;
#209 = CARTESIAN_POINT ( 'NONE',  ( -11.00000000000000000, 0.000000000000000000, 7.000000000000000000 ) ) ;
#210 = PLANE ( 'NONE',  #195 ) ;
#211 = CC_DESIGN_PERSON_AND_ORGANIZATION_ASSIGNMENT ( #240, #187, ( #38 ) ) ;
#212 = LOCAL_TIME ( 19, 11, 53.00000000000000000, #32 ) ;
#213 = ADVANCED_FACE ( 'NONE', ( #54 ), #59, .T. ) ;
#214 = VERTEX_POINT ( 'NONE', #101 ) ;
#215 = ORIENTED_EDGE ( 'NONE', *, *, #138, .F. ) ;
#216 = EDGE_CURVE ( 'NONE', #238, #146, #177, .T. ) ;
#217 = APPROVAL ( #243, 'NEURÈENÝ' ) ;
#218 = CIRCLE ( 'NONE', #44, 7.250000000000000000 ) ;
#219 = CYLINDRICAL_SURFACE ( 'NONE', #60, 7.250000000000000000 ) ;
#220 = DATE_AND_TIME ( #151, #82 ) ;
#221 = LINE ( 'NONE', #209, #160 ) ;
#222 = ADVANCED_FACE ( 'NONE', ( #93 ), #169, .T. ) ;
#223 = DATE_TIME_ROLE ( 'creation_date' ) ;
#224 = DIRECTION ( 'NONE',  ( -0.000000000000000000, -0.000000000000000000, -1.000000000000000000 ) ) ;
#225 = AXIS2_PLACEMENT_3D ( 'NONE', #80, #158, #34 ) ;
#226 = AXIS2_PLACEMENT_3D ( 'NONE', #134, #35, #149 ) ;
#227 = DIRECTION ( 'NONE',  ( 1.000000000000000000, 0.000000000000000000, 0.000000000000000000 ) ) ;
#228 = DATE_AND_TIME ( #29, #69 ) ;
#229 = ADVANCED_FACE ( 'NONE', ( #98 ), #219, .T. ) ;
#230 = FACE_OUTER_BOUND ( 'NONE', #233, .T. ) ;
#231 = CIRCLE ( 'NONE', #24, 7.250000000000000000 ) ;
#232 = AXIS2_PLACEMENT_3D ( 'NONE', #193, #174, #94 ) ;
#233 = EDGE_LOOP ( 'NONE', ( #234, #3, #147, #122 ) ) ;
#234 = ORIENTED_EDGE ( 'NONE', *, *, #254, .F. ) ;
#235 = EDGE_CURVE ( 'NONE', #146, #214, #218, .T. ) ;
#236 = EDGE_LOOP ( 'NONE', ( #199, #144, #200, #23 ) ) ;
#237 = CIRCLE ( 'NONE', #135, 11.00000000000000000 ) ;
#238 = VERTEX_POINT ( 'NONE', #58 ) ;
#239 = VECTOR ( 'NONE', #81, 1000.000000000000000 ) ;
#240 = PERSON_AND_ORGANIZATION ( #87, #181 ) ;
#241 = SECURITY_CLASSIFICATION ( '', '', #9 ) ;
#242 = CARTESIAN_POINT ( 'NONE',  ( 0.000000000000000000, 0.000000000000000000, 407.0000000000000000 ) ) ;
#243 = APPROVAL_STATUS ( 'not_yet_approved' ) ;
#244 = CARTESIAN_POINT ( 'NONE',  ( 0.000000000000000000, 0.000000000000000000, 0.000000000000000000 ) ) ;
#245 = PRODUCT_RELATED_PRODUCT_CATEGORY ( 'detail', '', ( #84 ) ) ;
#246 = CARTESIAN_POINT ( 'NONE',  ( 0.000000000000000000, 0.000000000000000000, 0.000000000000000000 ) ) ;
#247 =( NAMED_UNIT ( * ) PLANE_ANGLE_UNIT ( ) SI_UNIT ( $, .RADIAN. ) );
#248 = DIRECTION ( 'NONE',  ( 0.000000000000000000, 0.000000000000000000, 1.000000000000000000 ) ) ;
#249 = CIRCLE ( 'NONE', #141, 11.00000000000000000 ) ;
#250 = CC_DESIGN_APPROVAL ( #201, ( #184 ) ) ;
#251 = COORDINATED_UNIVERSAL_TIME_OFFSET ( 1, 0, .AHEAD. ) ;
#252 = CARTESIAN_POINT ( 'NONE',  ( -7.250000000000000000, 0.000000000000000000, 7.000000000000000000 ) ) ;
#253 = CARTESIAN_POINT ( 'NONE',  ( -7.250000000000000000, 0.000000000000000000, 407.0000000000000000 ) ) ;
#254 = EDGE_CURVE ( 'NONE', #26, #4, #10, .T. ) ;
#255 = APPLICATION_CONTEXT ( 'configuration controlled 3d designs of mechanical parts and assemblies' ) ;
ENDSEC;
END-ISO-10303-21;
