ISO-10303-21;
HEADER;
FILE_DESCRIPTION (( 'STEP AP203' ),
    '1' );
FILE_NAME ('8b77.STEP',
    '2022-07-07T17:44:17',
    ( '' ),
    ( '' ),
    'SwSTEP 2.0',
    'SolidWorks 2019',
    '' );
FILE_SCHEMA (( 'CONFIG_CONTROL_DESIGN' ));
ENDSEC;

DATA;
#1 = ORIENTED_EDGE ( 'NONE', *, *, #107, .T. ) ;
#2 = ORIENTED_EDGE ( 'NONE', *, *, #232, .F. ) ;
#3 = CARTESIAN_POINT ( 'NONE',  ( 0.000000000000000000, 0.000000000000000000, 3.000000000000000000 ) ) ;
#4 = CARTESIAN_POINT ( 'NONE',  ( 5.000000000000000000, 6.123233995736766282E-16, 3.000000000000000000 ) ) ;
#5 = EDGE_CURVE ( 'NONE', #218, #112, #253, .T. ) ;
#6 = PLANE ( 'NONE',  #52 ) ;
#7 = COORDINATED_UNIVERSAL_TIME_OFFSET ( 1, 0, .AHEAD. ) ;
#8 = FACE_OUTER_BOUND ( 'NONE', #159, .T. ) ;
#9 = DIRECTION ( 'NONE',  ( -0.000000000000000000, -0.000000000000000000, -1.000000000000000000 ) ) ;
#10 = APPROVAL_PERSON_ORGANIZATION ( #230, #228, #126 ) ;
#11 = APPLICATION_CONTEXT ( 'configuration controlled 3d designs of mechanical parts and assemblies' ) ;
#12 = DATE_AND_TIME ( #125, #193 ) ;
#13 = PRODUCT_RELATED_PRODUCT_CATEGORY ( 'detail', '', ( #81 ) ) ;
#14 = PERSON_AND_ORGANIZATION ( #175, #131 ) ;
#15 = COORDINATED_UNIVERSAL_TIME_OFFSET ( 1, 0, .AHEAD. ) ;
#16 = EDGE_CURVE ( 'NONE', #93, #181, #29, .T. ) ;
#17 = CC_DESIGN_PERSON_AND_ORGANIZATION_ASSIGNMENT ( #172, #252, ( #174 ) ) ;
#18 = FACE_OUTER_BOUND ( 'NONE', #22, .T. ) ;
#19 =( GEOMETRIC_REPRESENTATION_CONTEXT ( 3 ) GLOBAL_UNCERTAINTY_ASSIGNED_CONTEXT ( ( #80 ) ) GLOBAL_UNIT_ASSIGNED_CONTEXT ( ( #163, #65, #62 ) ) REPRESENTATION_CONTEXT ( 'NONE', 'WORKASPACE' ) );
#20 = EDGE_LOOP ( 'NONE', ( #255, #90 ) ) ;
#21 = EDGE_LOOP ( 'NONE', ( #201, #1, #53, #2 ) ) ;
#22 = EDGE_LOOP ( 'NONE', ( #177, #182, #72, #108 ) ) ;
#23 = APPLICATION_CONTEXT ( 'configuration controlled 3d designs of mechanical parts and assemblies' ) ;
#24 = CYLINDRICAL_SURFACE ( 'NONE', #247, 5.000000000000000000 ) ;
#25 = ORIENTED_EDGE ( 'NONE', *, *, #5, .T. ) ;
#26 = DIRECTION ( 'NONE',  ( -0.000000000000000000, -0.000000000000000000, -1.000000000000000000 ) ) ;
#27 = ADVANCED_BREP_SHAPE_REPRESENTATION ( '8b77', ( #233, #164 ), #19 ) ;
#28 = DIRECTION ( 'NONE',  ( -1.000000000000000000, 0.000000000000000000, 0.000000000000000000 ) ) ;
#29 = CIRCLE ( 'NONE', #134, 2.750000000000000000 ) ;
#30 = DIRECTION ( 'NONE',  ( 1.000000000000000000, 0.000000000000000000, 0.000000000000000000 ) ) ;
#31 = DIRECTION ( 'NONE',  ( 1.000000000000000000, 0.000000000000000000, 0.000000000000000000 ) ) ;
#32 = PERSON_AND_ORGANIZATION ( #175, #131 ) ;
#33 = APPROVAL_DATE_TIME ( #215, #228 ) ;
#34 = DATE_TIME_ROLE ( 'creation_date' ) ;
#35 = LOCAL_TIME ( 19, 44, 17.00000000000000000, #7 ) ;
#36 = CARTESIAN_POINT ( 'NONE',  ( 0.000000000000000000, 0.000000000000000000, 3.000000000000000000 ) ) ;
#37 = CARTESIAN_POINT ( 'NONE',  ( 0.000000000000000000, 0.000000000000000000, 0.000000000000000000 ) ) ;
#38 = EDGE_CURVE ( 'NONE', #236, #47, #214, .T. ) ;
#39 = ORIENTED_EDGE ( 'NONE', *, *, #76, .T. ) ;
#40 = CARTESIAN_POINT ( 'NONE',  ( 0.000000000000000000, 0.000000000000000000, 3.000000000000000000 ) ) ;
#41 = FACE_OUTER_BOUND ( 'NONE', #88, .T. ) ;
#42 = DIRECTION ( 'NONE',  ( 0.000000000000000000, 0.000000000000000000, 1.000000000000000000 ) ) ;
#43 = DIRECTION ( 'NONE',  ( 0.000000000000000000, 0.000000000000000000, 1.000000000000000000 ) ) ;
#44 = CARTESIAN_POINT ( 'NONE',  ( 0.000000000000000000, 0.000000000000000000, 128.0000000000000000 ) ) ;
#45 = AXIS2_PLACEMENT_3D ( 'NONE', #3, #87, #48 ) ;
#46 = CC_DESIGN_PERSON_AND_ORGANIZATION_ASSIGNMENT ( #14, #248, ( #216 ) ) ;
#47 = VERTEX_POINT ( 'NONE', #114 ) ;
#48 = DIRECTION ( 'NONE',  ( 1.000000000000000000, 0.000000000000000000, 0.000000000000000000 ) ) ;
#49 = APPROVAL ( #121, 'NEURÈENÝ' ) ;
#50 = CARTESIAN_POINT ( 'NONE',  ( 0.000000000000000000, 0.000000000000000000, 3.000000000000000000 ) ) ;
#51 = CARTESIAN_POINT ( 'NONE',  ( 0.000000000000000000, 0.000000000000000000, 128.0000000000000000 ) ) ;
#52 = AXIS2_PLACEMENT_3D ( 'NONE', #98, #42, #209 ) ;
#53 = ORIENTED_EDGE ( 'NONE', *, *, #151, .T. ) ;
#54 = CARTESIAN_POINT ( 'NONE',  ( 0.000000000000000000, 0.000000000000000000, 3.000000000000000000 ) ) ;
#55 = ADVANCED_FACE ( 'NONE', ( #18 ), #179, .T. ) ;
#56 = LINE ( 'NONE', #4, #66 ) ;
#57 = CARTESIAN_POINT ( 'NONE',  ( 0.000000000000000000, 0.000000000000000000, 3.000000000000000000 ) ) ;
#58 = CARTESIAN_POINT ( 'NONE',  ( 0.000000000000000000, 0.000000000000000000, 3.000000000000000000 ) ) ;
#59 = CC_DESIGN_SECURITY_CLASSIFICATION ( #216, ( #174 ) ) ;
#60 = PRODUCT_DEFINITION ( 'NEZNÁMÝ', '', #174, #97 ) ;
#61 = DATE_AND_TIME ( #249, #106 ) ;
#62 =( NAMED_UNIT ( * ) SI_UNIT ( $, .STERADIAN. ) SOLID_ANGLE_UNIT ( ) );
#63 = VECTOR ( 'NONE', #9, 1000.000000000000000 ) ;
#64 = CARTESIAN_POINT ( 'NONE',  ( 0.000000000000000000, 0.000000000000000000, 0.000000000000000000 ) ) ;
#65 =( NAMED_UNIT ( * ) PLANE_ANGLE_UNIT ( ) SI_UNIT ( $, .RADIAN. ) );
#66 = VECTOR ( 'NONE', #206, 1000.000000000000000 ) ;
#67 = DIRECTION ( 'NONE',  ( 0.000000000000000000, 0.000000000000000000, 1.000000000000000000 ) ) ;
#68 = ADVANCED_FACE ( 'NONE', ( #221 ), #24, .T. ) ;
#69 = EDGE_LOOP ( 'NONE', ( #220, #157, #197, #238 ) ) ;
#70 = LOCAL_TIME ( 19, 44, 17.00000000000000000, #194 ) ;
#71 = DIRECTION ( 'NONE',  ( -1.000000000000000000, 0.000000000000000000, 0.000000000000000000 ) ) ;
#72 = ORIENTED_EDGE ( 'NONE', *, *, #232, .T. ) ;
#73 = CARTESIAN_POINT ( 'NONE',  ( -5.000000000000000000, 0.000000000000000000, 0.000000000000000000 ) ) ;
#74 = DIRECTION ( 'NONE',  ( 0.000000000000000000, 0.000000000000000000, 1.000000000000000000 ) ) ;
#75 = PLANE ( 'NONE',  #229 ) ;
#76 = EDGE_CURVE ( 'NONE', #112, #218, #178, .T. ) ;
#77 = FACE_BOUND ( 'NONE', #202, .T. ) ;
#78 = AXIS2_PLACEMENT_3D ( 'NONE', #36, #67, #234 ) ;
#79 = CIRCLE ( 'NONE', #237, 2.750000000000000000 ) ;
#80 = UNCERTAINTY_MEASURE_WITH_UNIT (LENGTH_MEASURE( 1.000000000000000082E-05 ), #163, 'distance_accuracy_value', 'NONE');
#81 = PRODUCT ( '8b77', '8b77', '', ( #150 ) ) ;
#82 = APPROVAL_DATE_TIME ( #212, #136 ) ;
#83 = DIRECTION ( 'NONE',  ( 1.000000000000000000, 0.000000000000000000, 0.000000000000000000 ) ) ;
#84 = APPLICATION_PROTOCOL_DEFINITION ( 'international standard', 'config_control_design', 1994, #11 ) ;
#85 = ORIENTED_EDGE ( 'NONE', *, *, #148, .T. ) ;
#86 = EDGE_CURVE ( 'NONE', #93, #219, #156, .T. ) ;
#87 = DIRECTION ( 'NONE',  ( 0.000000000000000000, 0.000000000000000000, 1.000000000000000000 ) ) ;
#88 = EDGE_LOOP ( 'NONE', ( #161, #128, #89, #85 ) ) ;
#89 = ORIENTED_EDGE ( 'NONE', *, *, #86, .T. ) ;
#90 = ORIENTED_EDGE ( 'NONE', *, *, #151, .F. ) ;
#91 = FACE_OUTER_BOUND ( 'NONE', #130, .T. ) ;
#92 = DIRECTION ( 'NONE',  ( -0.000000000000000000, -0.000000000000000000, -1.000000000000000000 ) ) ;
#93 = VERTEX_POINT ( 'NONE', #199 ) ;
#94 = CARTESIAN_POINT ( 'NONE',  ( 0.000000000000000000, 0.000000000000000000, 0.000000000000000000 ) ) ;
#95 = CC_DESIGN_PERSON_AND_ORGANIZATION_ASSIGNMENT ( #168, #250, ( #174 ) ) ;
#96 = DIRECTION ( 'NONE',  ( 0.000000000000000000, 0.000000000000000000, 1.000000000000000000 ) ) ;
#97 = DESIGN_CONTEXT ( 'detailed design', #23, 'design' ) ;
#98 = CARTESIAN_POINT ( 'NONE',  ( 0.000000000000000000, 0.000000000000000000, 0.000000000000000000 ) ) ;
#99 = CARTESIAN_POINT ( 'NONE',  ( 2.750000000000000000, 3.367778697655221012E-16, 3.000000000000000000 ) ) ;
#100 = CIRCLE ( 'NONE', #122, 5.000000000000000000 ) ;
#101 = PERSON_AND_ORGANIZATION ( #175, #131 ) ;
#102 = ADVANCED_FACE ( 'NONE', ( #77, #8 ), #223, .T. ) ;
#103 = PERSON_AND_ORGANIZATION ( #175, #131 ) ;
#104 = APPROVAL_STATUS ( 'not_yet_approved' ) ;
#105 = APPROVAL_ROLE ( '' ) ;
#106 = LOCAL_TIME ( 19, 44, 17.00000000000000000, #145 ) ;
#107 = EDGE_CURVE ( 'NONE', #112, #47, #56, .T. ) ;
#108 = ORIENTED_EDGE ( 'NONE', *, *, #38, .T. ) ;
#109 = EDGE_CURVE ( 'NONE', #181, #93, #189, .T. ) ;
#110 = DIRECTION ( 'NONE',  ( -0.000000000000000000, -0.000000000000000000, -1.000000000000000000 ) ) ;
#111 = DIRECTION ( 'NONE',  ( 1.000000000000000000, 0.000000000000000000, 0.000000000000000000 ) ) ;
#112 = VERTEX_POINT ( 'NONE', #165 ) ;
#113 = ORIENTED_EDGE ( 'NONE', *, *, #119, .F. ) ;
#114 = CARTESIAN_POINT ( 'NONE',  ( 5.000000000000000000, 6.123233995736766282E-16, 0.000000000000000000 ) ) ;
#115 = CARTESIAN_POINT ( 'NONE',  ( 0.000000000000000000, 0.000000000000000000, 128.0000000000000000 ) ) ;
#116 = ADVANCED_FACE ( 'NONE', ( #187 ), #6, .F. ) ;
#117 = CALENDAR_DATE ( 2022, 7, 7 ) ;
#118 = DIRECTION ( 'NONE',  ( 1.000000000000000000, 0.000000000000000000, 0.000000000000000000 ) ) ;
#119 = EDGE_CURVE ( 'NONE', #153, #219, #235, .T. ) ;
#120 = DIRECTION ( 'NONE',  ( 0.000000000000000000, 0.000000000000000000, 1.000000000000000000 ) ) ;
#121 = APPROVAL_STATUS ( 'not_yet_approved' ) ;
#122 = AXIS2_PLACEMENT_3D ( 'NONE', #94, #137, #118 ) ;
#123 = CYLINDRICAL_SURFACE ( 'NONE', #242, 2.750000000000000000 ) ;
#124 = AXIS2_PLACEMENT_3D ( 'NONE', #241, #240, #166 ) ;
#125 = CALENDAR_DATE ( 2022, 7, 7 ) ;
#126 = APPROVAL_ROLE ( '' ) ;
#127 = CALENDAR_DATE ( 2022, 7, 7 ) ;
#128 = ORIENTED_EDGE ( 'NONE', *, *, #16, .F. ) ;
#129 = CC_DESIGN_DATE_AND_TIME_ASSIGNMENT ( #61, #147, ( #216 ) ) ;
#130 = EDGE_LOOP ( 'NONE', ( #239, #132 ) ) ;
#131 = ORGANIZATION ( 'NEURÈENÝ', 'NEURÈENÝ', '' ) ;
#132 = ORIENTED_EDGE ( 'NONE', *, *, #109, .T. ) ;
#133 = CARTESIAN_POINT ( 'NONE',  ( -2.750000000000000000, 0.000000000000000000, 128.0000000000000000 ) ) ;
#134 = AXIS2_PLACEMENT_3D ( 'NONE', #51, #135, #111 ) ;
#135 = DIRECTION ( 'NONE',  ( 0.000000000000000000, 0.000000000000000000, 1.000000000000000000 ) ) ;
#136 = APPROVAL ( #171, 'NEURÈENÝ' ) ;
#137 = DIRECTION ( 'NONE',  ( 0.000000000000000000, 0.000000000000000000, 1.000000000000000000 ) ) ;
#138 = CARTESIAN_POINT ( 'NONE',  ( 2.750000000000000000, 3.367778697655221012E-16, 128.0000000000000000 ) ) ;
#139 = DIRECTION ( 'NONE',  ( 1.000000000000000000, 0.000000000000000000, 0.000000000000000000 ) ) ;
#140 = DATE_AND_TIME ( #117, #35 ) ;
#141 = AXIS2_PLACEMENT_3D ( 'NONE', #40, #160, #71 ) ;
#142 = CARTESIAN_POINT ( 'NONE',  ( 0.000000000000000000, 0.000000000000000000, 128.0000000000000000 ) ) ;
#143 = APPROVAL_ROLE ( '' ) ;
#144 = APPROVAL_PERSON_ORGANIZATION ( #32, #49, #143 ) ;
#145 = COORDINATED_UNIVERSAL_TIME_OFFSET ( 1, 0, .AHEAD. ) ;
#146 = CC_DESIGN_PERSON_AND_ORGANIZATION_ASSIGNMENT ( #101, #192, ( #60 ) ) ;
#147 = DATE_TIME_ROLE ( 'classification_date' ) ;
#148 = EDGE_CURVE ( 'NONE', #219, #153, #79, .T. ) ;
#149 = APPLICATION_PROTOCOL_DEFINITION ( 'international standard', 'config_control_design', 1994, #23 ) ;
#150 = MECHANICAL_CONTEXT ( 'NONE', #11, 'mechanical' ) ;
#151 = EDGE_CURVE ( 'NONE', #47, #236, #100, .T. ) ;
#152 = CC_DESIGN_DATE_AND_TIME_ASSIGNMENT ( #12, #34, ( #60 ) ) ;
#153 = VERTEX_POINT ( 'NONE', #99 ) ;
#154 = AXIS2_PLACEMENT_3D ( 'NONE', #57, #244, #224 ) ;
#155 = APPROVAL_PERSON_ORGANIZATION ( #103, #136, #105 ) ;
#156 = LINE ( 'NONE', #133, #231 ) ;
#157 = ORIENTED_EDGE ( 'NONE', *, *, #243, .T. ) ;
#158 = VECTOR ( 'NONE', #203, 1000.000000000000000 ) ;
#159 = EDGE_LOOP ( 'NONE', ( #25, #39 ) ) ;
#160 = DIRECTION ( 'NONE',  ( -0.000000000000000000, -0.000000000000000000, -1.000000000000000000 ) ) ;
#161 = ORIENTED_EDGE ( 'NONE', *, *, #243, .F. ) ;
#162 = LINE ( 'NONE', #185, #158 ) ;
#163 =( LENGTH_UNIT ( ) NAMED_UNIT ( * ) SI_UNIT ( .MILLI., .METRE. ) );
#164 = AXIS2_PLACEMENT_3D ( 'NONE', #64, #170, #83 ) ;
#165 = CARTESIAN_POINT ( 'NONE',  ( 5.000000000000000000, 6.123233995736766282E-16, 3.000000000000000000 ) ) ;
#166 = DIRECTION ( 'NONE',  ( -1.000000000000000000, 0.000000000000000000, 0.000000000000000000 ) ) ;
#167 = CLOSED_SHELL ( 'NONE', ( #198, #68, #55, #102, #116, #210, #169 ) ) ;
#168 = PERSON_AND_ORGANIZATION ( #175, #131 ) ;
#169 = ADVANCED_FACE ( 'NONE', ( #91 ), #75, .T. ) ;
#170 = DIRECTION ( 'NONE',  ( 0.000000000000000000, 0.000000000000000000, 1.000000000000000000 ) ) ;
#171 = APPROVAL_STATUS ( 'not_yet_approved' ) ;
#172 = PERSON_AND_ORGANIZATION ( #175, #131 ) ;
#173 = AXIS2_PLACEMENT_3D ( 'NONE', #44, #120, #139 ) ;
#174 = PRODUCT_DEFINITION_FORMATION_WITH_SPECIFIED_SOURCE ( 'LIBOVOLNÝ', '', #81, .NOT_KNOWN. ) ;
#175 = PERSON ( 'NEURÈENÝ', 'NEURÈENÝ', 'NEURÈENÝ', ('NEURÈENÝ'), ('NEURÈENÝ'), ('NEURÈENÝ') ) ;
#176 = DIRECTION ( 'NONE',  ( 0.000000000000000000, 0.000000000000000000, 1.000000000000000000 ) ) ;
#177 = ORIENTED_EDGE ( 'NONE', *, *, #107, .F. ) ;
#178 = CIRCLE ( 'NONE', #78, 5.000000000000000000 ) ;
#179 = CYLINDRICAL_SURFACE ( 'NONE', #141, 5.000000000000000000 ) ;
#180 = CC_DESIGN_APPROVAL ( #49, ( #216 ) ) ;
#181 = VERTEX_POINT ( 'NONE', #138 ) ;
#182 = ORIENTED_EDGE ( 'NONE', *, *, #5, .F. ) ;
#183 = CARTESIAN_POINT ( 'NONE',  ( -5.000000000000000000, 0.000000000000000000, 3.000000000000000000 ) ) ;
#184 = DIRECTION ( 'NONE',  ( -1.000000000000000000, 0.000000000000000000, 0.000000000000000000 ) ) ;
#185 = CARTESIAN_POINT ( 'NONE',  ( 2.750000000000000000, 3.367778697655221012E-16, 128.0000000000000000 ) ) ;
#186 = CARTESIAN_POINT ( 'NONE',  ( -5.000000000000000000, 0.000000000000000000, 3.000000000000000000 ) ) ;
#187 = FACE_OUTER_BOUND ( 'NONE', #20, .T. ) ;
#188 = LINE ( 'NONE', #183, #63 ) ;
#189 = CIRCLE ( 'NONE', #173, 2.750000000000000000 ) ;
#190 = CALENDAR_DATE ( 2022, 7, 7 ) ;
#191 = SECURITY_CLASSIFICATION_LEVEL ( 'unclassified' ) ;
#192 = PERSON_AND_ORGANIZATION_ROLE ( 'creator' ) ;
#193 = LOCAL_TIME ( 19, 44, 17.00000000000000000, #15 ) ;
#194 = COORDINATED_UNIVERSAL_TIME_OFFSET ( 1, 0, .AHEAD. ) ;
#195 = ORIENTED_EDGE ( 'NONE', *, *, #148, .F. ) ;
#196 = CC_DESIGN_APPROVAL ( #228, ( #60 ) ) ;
#197 = ORIENTED_EDGE ( 'NONE', *, *, #119, .T. ) ;
#198 = ADVANCED_FACE ( 'NONE', ( #204 ), #222, .T. ) ;
#199 = CARTESIAN_POINT ( 'NONE',  ( -2.750000000000000000, 0.000000000000000000, 128.0000000000000000 ) ) ;
#200 = DIRECTION ( 'NONE',  ( 1.000000000000000000, 0.000000000000000000, 0.000000000000000000 ) ) ;
#201 = ORIENTED_EDGE ( 'NONE', *, *, #76, .F. ) ;
#202 = EDGE_LOOP ( 'NONE', ( #195, #113 ) ) ;
#203 = DIRECTION ( 'NONE',  ( -0.000000000000000000, -0.000000000000000000, -1.000000000000000000 ) ) ;
#204 = FACE_OUTER_BOUND ( 'NONE', #69, .T. ) ;
#205 = AXIS2_PLACEMENT_3D ( 'NONE', #37, #176, #200 ) ;
#206 = DIRECTION ( 'NONE',  ( -0.000000000000000000, -0.000000000000000000, -1.000000000000000000 ) ) ;
#207 = APPROVAL_DATE_TIME ( #140, #49 ) ;
#208 = AXIS2_PLACEMENT_3D ( 'NONE', #54, #43, #31 ) ;
#209 = DIRECTION ( 'NONE',  ( 1.000000000000000000, 0.000000000000000000, -0.000000000000000000 ) ) ;
#210 = ADVANCED_FACE ( 'NONE', ( #41 ), #123, .T. ) ;
#211 = PERSON_AND_ORGANIZATION ( #175, #131 ) ;
#212 = DATE_AND_TIME ( #190, #70 ) ;
#213 = COORDINATED_UNIVERSAL_TIME_OFFSET ( 1, 0, .AHEAD. ) ;
#214 = CIRCLE ( 'NONE', #205, 5.000000000000000000 ) ;
#215 = DATE_AND_TIME ( #127, #217 ) ;
#216 = SECURITY_CLASSIFICATION ( '', '', #191 ) ;
#217 = LOCAL_TIME ( 19, 44, 17.00000000000000000, #213 ) ;
#218 = VERTEX_POINT ( 'NONE', #186 ) ;
#219 = VERTEX_POINT ( 'NONE', #245 ) ;
#220 = ORIENTED_EDGE ( 'NONE', *, *, #109, .F. ) ;
#221 = FACE_OUTER_BOUND ( 'NONE', #21, .T. ) ;
#222 = CYLINDRICAL_SURFACE ( 'NONE', #124, 2.750000000000000000 ) ;
#223 = PLANE ( 'NONE',  #154 ) ;
#224 = DIRECTION ( 'NONE',  ( 1.000000000000000000, 0.000000000000000000, -0.000000000000000000 ) ) ;
#225 = SHAPE_DEFINITION_REPRESENTATION ( #246, #27 ) ;
#226 = DIRECTION ( 'NONE',  ( 1.000000000000000000, 0.000000000000000000, -0.000000000000000000 ) ) ;
#227 = CC_DESIGN_APPROVAL ( #136, ( #174 ) ) ;
#228 = APPROVAL ( #104, 'NEURÈENÝ' ) ;
#229 = AXIS2_PLACEMENT_3D ( 'NONE', #142, #96, #226 ) ;
#230 = PERSON_AND_ORGANIZATION ( #175, #131 ) ;
#231 = VECTOR ( 'NONE', #110, 1000.000000000000000 ) ;
#232 = EDGE_CURVE ( 'NONE', #218, #236, #188, .T. ) ;
#233 = MANIFOLD_SOLID_BREP ( 'Pøidat vysunutím3', #167 ) ;
#234 = DIRECTION ( 'NONE',  ( 1.000000000000000000, 0.000000000000000000, 0.000000000000000000 ) ) ;
#235 = CIRCLE ( 'NONE', #208, 2.750000000000000000 ) ;
#236 = VERTEX_POINT ( 'NONE', #73 ) ;
#237 = AXIS2_PLACEMENT_3D ( 'NONE', #58, #74, #30 ) ;
#238 = ORIENTED_EDGE ( 'NONE', *, *, #86, .F. ) ;
#239 = ORIENTED_EDGE ( 'NONE', *, *, #16, .T. ) ;
#240 = DIRECTION ( 'NONE',  ( -0.000000000000000000, -0.000000000000000000, -1.000000000000000000 ) ) ;
#241 = CARTESIAN_POINT ( 'NONE',  ( 0.000000000000000000, 0.000000000000000000, 128.0000000000000000 ) ) ;
#242 = AXIS2_PLACEMENT_3D ( 'NONE', #115, #26, #28 ) ;
#243 = EDGE_CURVE ( 'NONE', #181, #153, #162, .T. ) ;
#244 = DIRECTION ( 'NONE',  ( 0.000000000000000000, 0.000000000000000000, 1.000000000000000000 ) ) ;
#245 = CARTESIAN_POINT ( 'NONE',  ( -2.750000000000000000, 0.000000000000000000, 3.000000000000000000 ) ) ;
#246 = PRODUCT_DEFINITION_SHAPE ( 'NONE', 'NONE',  #60 ) ;
#247 = AXIS2_PLACEMENT_3D ( 'NONE', #50, #92, #184 ) ;
#248 = PERSON_AND_ORGANIZATION_ROLE ( 'classification_officer' ) ;
#249 = CALENDAR_DATE ( 2022, 7, 7 ) ;
#250 = PERSON_AND_ORGANIZATION_ROLE ( 'creator' ) ;
#251 = PERSON_AND_ORGANIZATION_ROLE ( 'design_owner' ) ;
#252 = PERSON_AND_ORGANIZATION_ROLE ( 'design_supplier' ) ;
#253 = CIRCLE ( 'NONE', #45, 5.000000000000000000 ) ;
#254 = CC_DESIGN_PERSON_AND_ORGANIZATION_ASSIGNMENT ( #211, #251, ( #81 ) ) ;
#255 = ORIENTED_EDGE ( 'NONE', *, *, #38, .F. ) ;
ENDSEC;
END-ISO-10303-21;
