ISO-10303-21;
HEADER;
FILE_DESCRIPTION (( 'STEP AP203' ),
    '1' );
FILE_NAME ('4b8b.STEP',
    '2022-07-07T17:34:12',
    ( '' ),
    ( '' ),
    'SwSTEP 2.0',
    'SolidWorks 2019',
    '' );
FILE_SCHEMA (( 'CONFIG_CONTROL_DESIGN' ));
ENDSEC;

DATA;
#1 = AXIS2_PLACEMENT_3D ( 'NONE', #134, #124, #169 ) ;
#2 =( GEOMETRIC_REPRESENTATION_CONTEXT ( 3 ) GLOBAL_UNCERTAINTY_ASSIGNED_CONTEXT ( ( #69 ) ) GLOBAL_UNIT_ASSIGNED_CONTEXT ( ( #13, #190, #96 ) ) REPRESENTATION_CONTEXT ( 'NONE', 'WORKASPACE' ) );
#3 = APPROVAL_PERSON_ORGANIZATION ( #58, #144, #137 ) ;
#4 = PERSON ( 'NEURÈENÝ', 'NEURÈENÝ', 'NEURÈENÝ', ('NEURÈENÝ'), ('NEURÈENÝ'), ('NEURÈENÝ') ) ;
#5 = ADVANCED_FACE ( 'NONE', ( #226 ), #249, .T. ) ;
#6 = ORIENTED_EDGE ( 'NONE', *, *, #31, .F. ) ;
#7 = EDGE_CURVE ( 'NONE', #216, #43, #163, .T. ) ;
#8 = CARTESIAN_POINT ( 'NONE',  ( 0.000000000000000000, 0.000000000000000000, 320.0000000000000000 ) ) ;
#9 = ORIENTED_EDGE ( 'NONE', *, *, #67, .F. ) ;
#10 = DIRECTION ( 'NONE',  ( 1.000000000000000000, 0.000000000000000000, 0.000000000000000000 ) ) ;
#11 = DIRECTION ( 'NONE',  ( -0.000000000000000000, -0.000000000000000000, -1.000000000000000000 ) ) ;
#12 = ORIENTED_EDGE ( 'NONE', *, *, #182, .F. ) ;
#13 =( LENGTH_UNIT ( ) NAMED_UNIT ( * ) SI_UNIT ( .MILLI., .METRE. ) );
#14 = CARTESIAN_POINT ( 'NONE',  ( 6.000000000000000888, 7.347880794884120722E-16, 5.000000000000000000 ) ) ;
#15 = VERTEX_POINT ( 'NONE', #48 ) ;
#16 = CALENDAR_DATE ( 2022, 7, 7 ) ;
#17 = EDGE_CURVE ( 'NONE', #247, #15, #53, .T. ) ;
#18 = PRODUCT_RELATED_PRODUCT_CATEGORY ( 'detail', '', ( #25 ) ) ;
#19 = ORIENTED_EDGE ( 'NONE', *, *, #168, .T. ) ;
#20 = PERSON_AND_ORGANIZATION_ROLE ( 'design_supplier' ) ;
#21 = VECTOR ( 'NONE', #51, 1000.000000000000000 ) ;
#22 = DIRECTION ( 'NONE',  ( 0.000000000000000000, 0.000000000000000000, 1.000000000000000000 ) ) ;
#23 = EDGE_CURVE ( 'NONE', #195, #247, #173, .T. ) ;
#24 = AXIS2_PLACEMENT_3D ( 'NONE', #47, #127, #206 ) ;
#25 = PRODUCT ( '4b8b', '4b8b', '', ( #235 ) ) ;
#26 = LINE ( 'NONE', #14, #181 ) ;
#27 = FACE_OUTER_BOUND ( 'NONE', #104, .T. ) ;
#28 = CARTESIAN_POINT ( 'NONE',  ( -3.750000000000000000, 0.000000000000000000, 320.0000000000000000 ) ) ;
#29 = DIRECTION ( 'NONE',  ( 1.000000000000000000, 0.000000000000000000, -0.000000000000000000 ) ) ;
#30 = CARTESIAN_POINT ( 'NONE',  ( -3.750000000000000000, 0.000000000000000000, 320.0000000000000000 ) ) ;
#31 = EDGE_CURVE ( 'NONE', #68, #216, #108, .T. ) ;
#32 = DIRECTION ( 'NONE',  ( 1.000000000000000000, 0.000000000000000000, 0.000000000000000000 ) ) ;
#33 = DIRECTION ( 'NONE',  ( 0.000000000000000000, 0.000000000000000000, 1.000000000000000000 ) ) ;
#34 = AXIS2_PLACEMENT_3D ( 'NONE', #243, #208, #225 ) ;
#35 = CARTESIAN_POINT ( 'NONE',  ( 0.000000000000000000, 0.000000000000000000, 0.000000000000000000 ) ) ;
#36 = EDGE_LOOP ( 'NONE', ( #176, #105, #92, #220 ) ) ;
#37 = FACE_OUTER_BOUND ( 'NONE', #172, .T. ) ;
#38 = APPROVAL_STATUS ( 'not_yet_approved' ) ;
#39 = APPROVAL_ROLE ( '' ) ;
#40 = PERSON_AND_ORGANIZATION ( #4, #45 ) ;
#41 = SECURITY_CLASSIFICATION_LEVEL ( 'unclassified' ) ;
#42 = AXIS2_PLACEMENT_3D ( 'NONE', #244, #33, #112 ) ;
#43 = VERTEX_POINT ( 'NONE', #128 ) ;
#44 = DIRECTION ( 'NONE',  ( 0.000000000000000000, 0.000000000000000000, 1.000000000000000000 ) ) ;
#45 = ORGANIZATION ( 'NEURÈENÝ', 'NEURÈENÝ', '' ) ;
#46 = LINE ( 'NONE', #205, #240 ) ;
#47 = CARTESIAN_POINT ( 'NONE',  ( 0.000000000000000000, 0.000000000000000000, 5.000000000000000000 ) ) ;
#48 = CARTESIAN_POINT ( 'NONE',  ( -6.000000000000000888, 0.000000000000000000, 0.000000000000000000 ) ) ;
#49 = EDGE_CURVE ( 'NONE', #195, #91, #26, .T. ) ;
#50 = DIRECTION ( 'NONE',  ( 0.000000000000000000, 0.000000000000000000, 1.000000000000000000 ) ) ;
#51 = DIRECTION ( 'NONE',  ( -0.000000000000000000, -0.000000000000000000, -1.000000000000000000 ) ) ;
#52 = DIRECTION ( 'NONE',  ( 1.000000000000000000, 0.000000000000000000, 0.000000000000000000 ) ) ;
#53 = LINE ( 'NONE', #72, #241 ) ;
#54 = APPROVAL_PERSON_ORGANIZATION ( #251, #234, #82 ) ;
#55 = DIRECTION ( 'NONE',  ( -1.000000000000000000, 0.000000000000000000, 0.000000000000000000 ) ) ;
#56 = CALENDAR_DATE ( 2022, 7, 7 ) ;
#57 = PERSON_AND_ORGANIZATION ( #4, #45 ) ;
#58 = PERSON_AND_ORGANIZATION ( #4, #45 ) ;
#59 = PERSON_AND_ORGANIZATION ( #4, #45 ) ;
#60 = APPLICATION_PROTOCOL_DEFINITION ( 'international standard', 'config_control_design', 1994, #237 ) ;
#61 = CC_DESIGN_PERSON_AND_ORGANIZATION_ASSIGNMENT ( #81, #255, ( #25 ) ) ;
#62 = AXIS2_PLACEMENT_3D ( 'NONE', #107, #11, #55 ) ;
#63 = CC_DESIGN_SECURITY_CLASSIFICATION ( #138, ( #86 ) ) ;
#64 = EDGE_CURVE ( 'NONE', #15, #91, #229, .T. ) ;
#65 = ORIENTED_EDGE ( 'NONE', *, *, #168, .F. ) ;
#66 = CIRCLE ( 'NONE', #123, 3.750000000000000000 ) ;
#67 = EDGE_CURVE ( 'NONE', #189, #43, #46, .T. ) ;
#68 = VERTEX_POINT ( 'NONE', #28 ) ;
#69 = UNCERTAINTY_MEASURE_WITH_UNIT (LENGTH_MEASURE( 1.000000000000000082E-05 ), #13, 'distance_accuracy_value', 'NONE');
#70 = DIRECTION ( 'NONE',  ( 0.000000000000000000, 0.000000000000000000, 1.000000000000000000 ) ) ;
#71 = CARTESIAN_POINT ( 'NONE',  ( 0.000000000000000000, 0.000000000000000000, 320.0000000000000000 ) ) ;
#72 = CARTESIAN_POINT ( 'NONE',  ( -6.000000000000000888, 0.000000000000000000, 5.000000000000000000 ) ) ;
#73 = FACE_OUTER_BOUND ( 'NONE', #209, .T. ) ;
#74 = ORIENTED_EDGE ( 'NONE', *, *, #17, .T. ) ;
#75 = CYLINDRICAL_SURFACE ( 'NONE', #1, 6.000000000000000888 ) ;
#76 = DIRECTION ( 'NONE',  ( 0.000000000000000000, 0.000000000000000000, 1.000000000000000000 ) ) ;
#77 = AXIS2_PLACEMENT_3D ( 'NONE', #131, #223, #167 ) ;
#78 = DIRECTION ( 'NONE',  ( 1.000000000000000000, 0.000000000000000000, 0.000000000000000000 ) ) ;
#79 = DATE_AND_TIME ( #174, #165 ) ;
#80 = CC_DESIGN_PERSON_AND_ORGANIZATION_ASSIGNMENT ( #40, #178, ( #157 ) ) ;
#81 = PERSON_AND_ORGANIZATION ( #4, #45 ) ;
#82 = APPROVAL_ROLE ( '' ) ;
#83 = CIRCLE ( 'NONE', #122, 3.750000000000000000 ) ;
#84 = CARTESIAN_POINT ( 'NONE',  ( 0.000000000000000000, 0.000000000000000000, 0.000000000000000000 ) ) ;
#85 = CC_DESIGN_PERSON_AND_ORGANIZATION_ASSIGNMENT ( #57, #118, ( #86 ) ) ;
#86 = PRODUCT_DEFINITION_FORMATION_WITH_SPECIFIED_SOURCE ( 'LIBOVOLNÝ', '', #25, .NOT_KNOWN. ) ;
#87 = PRODUCT_DEFINITION_SHAPE ( 'NONE', 'NONE',  #157 ) ;
#88 = AXIS2_PLACEMENT_3D ( 'NONE', #248, #93, #204 ) ;
#89 = EDGE_LOOP ( 'NONE', ( #150, #65, #74, #133 ) ) ;
#90 = CARTESIAN_POINT ( 'NONE',  ( -3.750000000000000000, 0.000000000000000000, 5.000000000000000000 ) ) ;
#91 = VERTEX_POINT ( 'NONE', #170 ) ;
#92 = ORIENTED_EDGE ( 'NONE', *, *, #100, .T. ) ;
#93 = DIRECTION ( 'NONE',  ( -0.000000000000000000, -0.000000000000000000, -1.000000000000000000 ) ) ;
#94 = DIRECTION ( 'NONE',  ( 0.000000000000000000, 0.000000000000000000, 1.000000000000000000 ) ) ;
#95 = CYLINDRICAL_SURFACE ( 'NONE', #221, 3.750000000000000000 ) ;
#96 =( NAMED_UNIT ( * ) SI_UNIT ( $, .STERADIAN. ) SOLID_ANGLE_UNIT ( ) );
#97 = AXIS2_PLACEMENT_3D ( 'NONE', #148, #76, #10 ) ;
#98 = APPROVAL_STATUS ( 'not_yet_approved' ) ;
#99 = COORDINATED_UNIVERSAL_TIME_OFFSET ( 1, 0, .AHEAD. ) ;
#100 = EDGE_CURVE ( 'NONE', #91, #15, #159, .T. ) ;
#101 = AXIS2_PLACEMENT_3D ( 'NONE', #194, #70, #228 ) ;
#102 = PERSON_AND_ORGANIZATION ( #4, #45 ) ;
#103 = AXIS2_PLACEMENT_3D ( 'NONE', #84, #22, #253 ) ;
#104 = EDGE_LOOP ( 'NONE', ( #9, #106, #187, #162 ) ) ;
#105 = ORIENTED_EDGE ( 'NONE', *, *, #49, .T. ) ;
#106 = ORIENTED_EDGE ( 'NONE', *, *, #201, .F. ) ;
#107 = CARTESIAN_POINT ( 'NONE',  ( 0.000000000000000000, 0.000000000000000000, 320.0000000000000000 ) ) ;
#108 = LINE ( 'NONE', #30, #21 ) ;
#109 = CC_DESIGN_DATE_AND_TIME_ASSIGNMENT ( #217, #120, ( #157 ) ) ;
#110 = CARTESIAN_POINT ( 'NONE',  ( -6.000000000000000888, 0.000000000000000000, 5.000000000000000000 ) ) ;
#111 = DIRECTION ( 'NONE',  ( -0.000000000000000000, -0.000000000000000000, -1.000000000000000000 ) ) ;
#112 = DIRECTION ( 'NONE',  ( 1.000000000000000000, 0.000000000000000000, 0.000000000000000000 ) ) ;
#113 = DIRECTION ( 'NONE',  ( 0.000000000000000000, 0.000000000000000000, 1.000000000000000000 ) ) ;
#114 = ORIENTED_EDGE ( 'NONE', *, *, #23, .T. ) ;
#115 = COORDINATED_UNIVERSAL_TIME_OFFSET ( 1, 0, .AHEAD. ) ;
#116 = CIRCLE ( 'NONE', #24, 6.000000000000000888 ) ;
#117 = CC_DESIGN_DATE_AND_TIME_ASSIGNMENT ( #135, #213, ( #138 ) ) ;
#118 = PERSON_AND_ORGANIZATION_ROLE ( 'creator' ) ;
#119 = APPROVAL_PERSON_ORGANIZATION ( #59, #250, #39 ) ;
#120 = DATE_TIME_ROLE ( 'creation_date' ) ;
#121 = CALENDAR_DATE ( 2022, 7, 7 ) ;
#122 = AXIS2_PLACEMENT_3D ( 'NONE', #192, #44, #52 ) ;
#123 = AXIS2_PLACEMENT_3D ( 'NONE', #71, #113, #32 ) ;
#124 = DIRECTION ( 'NONE',  ( -0.000000000000000000, -0.000000000000000000, -1.000000000000000000 ) ) ;
#125 = ORIENTED_EDGE ( 'NONE', *, *, #238, .T. ) ;
#126 = ADVANCED_FACE ( 'NONE', ( #191 ), #95, .T. ) ;
#127 = DIRECTION ( 'NONE',  ( 0.000000000000000000, 0.000000000000000000, 1.000000000000000000 ) ) ;
#128 = CARTESIAN_POINT ( 'NONE',  ( 3.750000000000000000, 4.592425496802573972E-16, 5.000000000000000000 ) ) ;
#129 = FACE_BOUND ( 'NONE', #136, .T. ) ;
#130 = AXIS2_PLACEMENT_3D ( 'NONE', #231, #94, #211 ) ;
#131 = CARTESIAN_POINT ( 'NONE',  ( 0.000000000000000000, 0.000000000000000000, 0.000000000000000000 ) ) ;
#132 = DIRECTION ( 'NONE',  ( 0.000000000000000000, 0.000000000000000000, 1.000000000000000000 ) ) ;
#133 = ORIENTED_EDGE ( 'NONE', *, *, #64, .T. ) ;
#134 = CARTESIAN_POINT ( 'NONE',  ( 0.000000000000000000, 0.000000000000000000, 5.000000000000000000 ) ) ;
#135 = DATE_AND_TIME ( #56, #143 ) ;
#136 = EDGE_LOOP ( 'NONE', ( #156, #12 ) ) ;
#137 = APPROVAL_ROLE ( '' ) ;
#138 = SECURITY_CLASSIFICATION ( '', '', #41 ) ;
#139 = APPROVAL_STATUS ( 'not_yet_approved' ) ;
#140 = ORIENTED_EDGE ( 'NONE', *, *, #64, .F. ) ;
#141 = COORDINATED_UNIVERSAL_TIME_OFFSET ( 1, 0, .AHEAD. ) ;
#142 = CC_DESIGN_APPROVAL ( #234, ( #157 ) ) ;
#143 = LOCAL_TIME ( 19, 34, 12.00000000000000000, #141 ) ;
#144 = APPROVAL ( #38, 'NEURÈENÝ' ) ;
#145 = ADVANCED_FACE ( 'NONE', ( #151 ), #75, .T. ) ;
#146 = AXIS2_PLACEMENT_3D ( 'NONE', #8, #50, #78 ) ;
#147 = MANIFOLD_SOLID_BREP ( 'Pøidat vysunutím3', #219 ) ;
#148 = CARTESIAN_POINT ( 'NONE',  ( 0.000000000000000000, 0.000000000000000000, 5.000000000000000000 ) ) ;
#149 = PLANE ( 'NONE',  #34 ) ;
#150 = ORIENTED_EDGE ( 'NONE', *, *, #49, .F. ) ;
#151 = FACE_OUTER_BOUND ( 'NONE', #36, .T. ) ;
#152 = ORIENTED_EDGE ( 'NONE', *, *, #67, .T. ) ;
#153 = DIRECTION ( 'NONE',  ( -0.000000000000000000, -0.000000000000000000, -1.000000000000000000 ) ) ;
#154 = DIRECTION ( 'NONE',  ( -0.000000000000000000, -0.000000000000000000, -1.000000000000000000 ) ) ;
#155 = APPROVAL_DATE_TIME ( #79, #144 ) ;
#156 = ORIENTED_EDGE ( 'NONE', *, *, #7, .F. ) ;
#157 = PRODUCT_DEFINITION ( 'NEZNÁMÝ', '', #86, #166 ) ;
#158 = COORDINATED_UNIVERSAL_TIME_OFFSET ( 1, 0, .AHEAD. ) ;
#159 = CIRCLE ( 'NONE', #42, 6.000000000000000888 ) ;
#160 = CC_DESIGN_PERSON_AND_ORGANIZATION_ASSIGNMENT ( #177, #20, ( #86 ) ) ;
#161 = CC_DESIGN_APPROVAL ( #250, ( #86 ) ) ;
#162 = ORIENTED_EDGE ( 'NONE', *, *, #7, .T. ) ;
#163 = CIRCLE ( 'NONE', #97, 3.750000000000000000 ) ;
#164 = CIRCLE ( 'NONE', #146, 3.750000000000000000 ) ;
#165 = LOCAL_TIME ( 19, 34, 12.00000000000000000, #196 ) ;
#166 = DESIGN_CONTEXT ( 'detailed design', #237, 'design' ) ;
#167 = DIRECTION ( 'NONE',  ( 1.000000000000000000, 0.000000000000000000, 0.000000000000000000 ) ) ;
#168 = EDGE_CURVE ( 'NONE', #247, #195, #116, .T. ) ;
#169 = DIRECTION ( 'NONE',  ( -1.000000000000000000, 0.000000000000000000, 0.000000000000000000 ) ) ;
#170 = CARTESIAN_POINT ( 'NONE',  ( 6.000000000000000888, 7.347880794884120722E-16, 0.000000000000000000 ) ) ;
#171 = DIRECTION ( 'NONE',  ( -1.000000000000000000, 0.000000000000000000, 0.000000000000000000 ) ) ;
#172 = EDGE_LOOP ( 'NONE', ( #19, #114 ) ) ;
#173 = CIRCLE ( 'NONE', #130, 6.000000000000000888 ) ;
#174 = CALENDAR_DATE ( 2022, 7, 7 ) ;
#175 = ADVANCED_FACE ( 'NONE', ( #246 ), #232, .T. ) ;
#176 = ORIENTED_EDGE ( 'NONE', *, *, #23, .F. ) ;
#177 = PERSON_AND_ORGANIZATION ( #4, #45 ) ;
#178 = PERSON_AND_ORGANIZATION_ROLE ( 'creator' ) ;
#179 = ADVANCED_FACE ( 'NONE', ( #27 ), #230, .T. ) ;
#180 = APPLICATION_CONTEXT ( 'configuration controlled 3d designs of mechanical parts and assemblies' ) ;
#181 = VECTOR ( 'NONE', #186, 1000.000000000000000 ) ;
#182 = EDGE_CURVE ( 'NONE', #43, #216, #83, .T. ) ;
#183 = ORIENTED_EDGE ( 'NONE', *, *, #100, .F. ) ;
#184 = EDGE_LOOP ( 'NONE', ( #207, #152, #242, #6 ) ) ;
#185 = CARTESIAN_POINT ( 'NONE',  ( 0.000000000000000000, 0.000000000000000000, 320.0000000000000000 ) ) ;
#186 = DIRECTION ( 'NONE',  ( -0.000000000000000000, -0.000000000000000000, -1.000000000000000000 ) ) ;
#187 = ORIENTED_EDGE ( 'NONE', *, *, #31, .T. ) ;
#188 = ADVANCED_FACE ( 'NONE', ( #73 ), #227, .F. ) ;
#189 = VERTEX_POINT ( 'NONE', #210 ) ;
#190 =( NAMED_UNIT ( * ) PLANE_ANGLE_UNIT ( ) SI_UNIT ( $, .RADIAN. ) );
#191 = FACE_OUTER_BOUND ( 'NONE', #184, .T. ) ;
#192 = CARTESIAN_POINT ( 'NONE',  ( 0.000000000000000000, 0.000000000000000000, 5.000000000000000000 ) ) ;
#193 = ORIENTED_EDGE ( 'NONE', *, *, #201, .T. ) ;
#194 = CARTESIAN_POINT ( 'NONE',  ( 0.000000000000000000, 0.000000000000000000, 320.0000000000000000 ) ) ;
#195 = VERTEX_POINT ( 'NONE', #212 ) ;
#196 = COORDINATED_UNIVERSAL_TIME_OFFSET ( 1, 0, .AHEAD. ) ;
#197 = LOCAL_TIME ( 19, 34, 12.00000000000000000, #99 ) ;
#198 = LOCAL_TIME ( 19, 34, 12.00000000000000000, #115 ) ;
#199 = SHAPE_DEFINITION_REPRESENTATION ( #87, #215 ) ;
#200 = APPROVAL_DATE_TIME ( #252, #250 ) ;
#201 = EDGE_CURVE ( 'NONE', #68, #189, #164, .T. ) ;
#202 = APPLICATION_PROTOCOL_DEFINITION ( 'international standard', 'config_control_design', 1994, #180 ) ;
#203 = CC_DESIGN_APPROVAL ( #144, ( #138 ) ) ;
#204 = DIRECTION ( 'NONE',  ( -1.000000000000000000, 0.000000000000000000, 0.000000000000000000 ) ) ;
#205 = CARTESIAN_POINT ( 'NONE',  ( 3.750000000000000000, 4.592425496802573972E-16, 320.0000000000000000 ) ) ;
#206 = DIRECTION ( 'NONE',  ( 1.000000000000000000, 0.000000000000000000, 0.000000000000000000 ) ) ;
#207 = ORIENTED_EDGE ( 'NONE', *, *, #238, .F. ) ;
#208 = DIRECTION ( 'NONE',  ( 0.000000000000000000, 0.000000000000000000, 1.000000000000000000 ) ) ;
#209 = EDGE_LOOP ( 'NONE', ( #140, #183 ) ) ;
#210 = CARTESIAN_POINT ( 'NONE',  ( 3.750000000000000000, 4.592425496802573972E-16, 320.0000000000000000 ) ) ;
#211 = DIRECTION ( 'NONE',  ( 1.000000000000000000, 0.000000000000000000, 0.000000000000000000 ) ) ;
#212 = CARTESIAN_POINT ( 'NONE',  ( 6.000000000000000888, 7.347880794884120722E-16, 5.000000000000000000 ) ) ;
#213 = DATE_TIME_ROLE ( 'classification_date' ) ;
#214 = PERSON_AND_ORGANIZATION_ROLE ( 'classification_officer' ) ;
#215 = ADVANCED_BREP_SHAPE_REPRESENTATION ( '4b8b', ( #147, #103 ), #2 ) ;
#216 = VERTEX_POINT ( 'NONE', #90 ) ;
#217 = DATE_AND_TIME ( #236, #197 ) ;
#218 = LOCAL_TIME ( 19, 34, 12.00000000000000000, #158 ) ;
#219 = CLOSED_SHELL ( 'NONE', ( #126, #145, #175, #222, #188, #179, #5 ) ) ;
#220 = ORIENTED_EDGE ( 'NONE', *, *, #17, .F. ) ;
#221 = AXIS2_PLACEMENT_3D ( 'NONE', #185, #153, #171 ) ;
#222 = ADVANCED_FACE ( 'NONE', ( #129, #37 ), #149, .T. ) ;
#223 = DIRECTION ( 'NONE',  ( 0.000000000000000000, 0.000000000000000000, 1.000000000000000000 ) ) ;
#224 = AXIS2_PLACEMENT_3D ( 'NONE', #35, #132, #29 ) ;
#225 = DIRECTION ( 'NONE',  ( 1.000000000000000000, 0.000000000000000000, -0.000000000000000000 ) ) ;
#226 = FACE_OUTER_BOUND ( 'NONE', #245, .T. ) ;
#227 = PLANE ( 'NONE',  #224 ) ;
#228 = DIRECTION ( 'NONE',  ( 1.000000000000000000, 0.000000000000000000, -0.000000000000000000 ) ) ;
#229 = CIRCLE ( 'NONE', #77, 6.000000000000000888 ) ;
#230 = CYLINDRICAL_SURFACE ( 'NONE', #62, 3.750000000000000000 ) ;
#231 = CARTESIAN_POINT ( 'NONE',  ( 0.000000000000000000, 0.000000000000000000, 5.000000000000000000 ) ) ;
#232 = CYLINDRICAL_SURFACE ( 'NONE', #88, 6.000000000000000888 ) ;
#233 = APPROVAL_DATE_TIME ( #239, #234 ) ;
#234 = APPROVAL ( #98, 'NEURÈENÝ' ) ;
#235 = MECHANICAL_CONTEXT ( 'NONE', #180, 'mechanical' ) ;
#236 = CALENDAR_DATE ( 2022, 7, 7 ) ;
#237 = APPLICATION_CONTEXT ( 'configuration controlled 3d designs of mechanical parts and assemblies' ) ;
#238 = EDGE_CURVE ( 'NONE', #189, #68, #66, .T. ) ;
#239 = DATE_AND_TIME ( #121, #218 ) ;
#240 = VECTOR ( 'NONE', #111, 1000.000000000000000 ) ;
#241 = VECTOR ( 'NONE', #154, 1000.000000000000000 ) ;
#242 = ORIENTED_EDGE ( 'NONE', *, *, #182, .T. ) ;
#243 = CARTESIAN_POINT ( 'NONE',  ( 0.000000000000000000, 0.000000000000000000, 5.000000000000000000 ) ) ;
#244 = CARTESIAN_POINT ( 'NONE',  ( 0.000000000000000000, 0.000000000000000000, 0.000000000000000000 ) ) ;
#245 = EDGE_LOOP ( 'NONE', ( #193, #125 ) ) ;
#246 = FACE_OUTER_BOUND ( 'NONE', #89, .T. ) ;
#247 = VERTEX_POINT ( 'NONE', #110 ) ;
#248 = CARTESIAN_POINT ( 'NONE',  ( 0.000000000000000000, 0.000000000000000000, 5.000000000000000000 ) ) ;
#249 = PLANE ( 'NONE',  #101 ) ;
#250 = APPROVAL ( #139, 'NEURÈENÝ' ) ;
#251 = PERSON_AND_ORGANIZATION ( #4, #45 ) ;
#252 = DATE_AND_TIME ( #16, #198 ) ;
#253 = DIRECTION ( 'NONE',  ( 1.000000000000000000, 0.000000000000000000, 0.000000000000000000 ) ) ;
#254 = CC_DESIGN_PERSON_AND_ORGANIZATION_ASSIGNMENT ( #102, #214, ( #138 ) ) ;
#255 = PERSON_AND_ORGANIZATION_ROLE ( 'design_owner' ) ;
ENDSEC;
END-ISO-10303-21;
