ISO-10303-21;
HEADER;
FILE_DESCRIPTION (( 'STEP AP203' ),
    '1' );
FILE_NAME ('4989.STEP',
    '2022-07-07T17:30:08',
    ( '' ),
    ( '' ),
    'SwSTEP 2.0',
    'SolidWorks 2019',
    '' );
FILE_SCHEMA (( 'CONFIG_CONTROL_DESIGN' ));
ENDSEC;

DATA;
#1 = EDGE_CURVE ( 'NONE', #129, #149, #51, .T. ) ;
#2 = PERSON_AND_ORGANIZATION ( #161, #68 ) ;
#3 = CARTESIAN_POINT ( 'NONE',  ( -4.250000000000000000, 0.000000000000000000, 255.0000000000000000 ) ) ;
#4 = PERSON_AND_ORGANIZATION ( #161, #68 ) ;
#5 = APPROVAL_DATE_TIME ( #44, #54 ) ;
#6 = CC_DESIGN_PERSON_AND_ORGANIZATION_ASSIGNMENT ( #49, #79, ( #140 ) ) ;
#7 = CARTESIAN_POINT ( 'NONE',  ( 0.000000000000000000, 0.000000000000000000, 255.0000000000000000 ) ) ;
#8 = ADVANCED_FACE ( 'NONE', ( #239 ), #120, .T. ) ;
#9 = DIRECTION ( 'NONE',  ( 0.000000000000000000, 0.000000000000000000, 1.000000000000000000 ) ) ;
#10 = CC_DESIGN_APPROVAL ( #241, ( #140 ) ) ;
#11 = DIRECTION ( 'NONE',  ( 1.000000000000000000, 0.000000000000000000, -0.000000000000000000 ) ) ;
#12 = APPLICATION_CONTEXT ( 'configuration controlled 3d designs of mechanical parts and assemblies' ) ;
#13 = DIRECTION ( 'NONE',  ( 0.000000000000000000, 0.000000000000000000, 1.000000000000000000 ) ) ;
#14 = CARTESIAN_POINT ( 'NONE',  ( 0.000000000000000000, 0.000000000000000000, 255.0000000000000000 ) ) ;
#15 = ORIENTED_EDGE ( 'NONE', *, *, #236, .F. ) ;
#16 = VECTOR ( 'NONE', #102, 1000.000000000000000 ) ;
#17 = CARTESIAN_POINT ( 'NONE',  ( -7.000000000000000000, 0.000000000000000000, 5.000000000000000000 ) ) ;
#18 = VERTEX_POINT ( 'NONE', #219 ) ;
#19 = APPROVAL_ROLE ( '' ) ;
#20 = PERSON_AND_ORGANIZATION_ROLE ( 'creator' ) ;
#21 = VERTEX_POINT ( 'NONE', #47 ) ;
#22 = CIRCLE ( 'NONE', #108, 4.250000000000000000 ) ;
#23 = CARTESIAN_POINT ( 'NONE',  ( 4.250000000000000000, 5.204748896376250699E-16, 255.0000000000000000 ) ) ;
#24 = ADVANCED_BREP_SHAPE_REPRESENTATION ( '4989', ( #222, #97 ), #48 ) ;
#25 = CC_DESIGN_SECURITY_CLASSIFICATION ( #148, ( #140 ) ) ;
#26 = CIRCLE ( 'NONE', #112, 7.000000000000000000 ) ;
#27 = CYLINDRICAL_SURFACE ( 'NONE', #41, 4.250000000000000000 ) ;
#28 = EDGE_CURVE ( 'NONE', #65, #208, #122, .T. ) ;
#29 = FACE_OUTER_BOUND ( 'NONE', #228, .T. ) ;
#30 = CARTESIAN_POINT ( 'NONE',  ( 0.000000000000000000, 0.000000000000000000, 0.000000000000000000 ) ) ;
#31 = CARTESIAN_POINT ( 'NONE',  ( 0.000000000000000000, 0.000000000000000000, 5.000000000000000000 ) ) ;
#32 = AXIS2_PLACEMENT_3D ( 'NONE', #85, #164, #243 ) ;
#33 = CC_DESIGN_DATE_AND_TIME_ASSIGNMENT ( #96, #142, ( #123 ) ) ;
#34 = PLANE ( 'NONE',  #38 ) ;
#35 = ORIENTED_EDGE ( 'NONE', *, *, #198, .F. ) ;
#36 = DIRECTION ( 'NONE',  ( -0.000000000000000000, -0.000000000000000000, -1.000000000000000000 ) ) ;
#37 = ORIENTED_EDGE ( 'NONE', *, *, #28, .T. ) ;
#38 = AXIS2_PLACEMENT_3D ( 'NONE', #109, #186, #150 ) ;
#39 = EDGE_CURVE ( 'NONE', #42, #21, #63, .T. ) ;
#40 = FACE_OUTER_BOUND ( 'NONE', #170, .T. ) ;
#41 = AXIS2_PLACEMENT_3D ( 'NONE', #105, #203, #183 ) ;
#42 = VERTEX_POINT ( 'NONE', #3 ) ;
#43 = PERSON_AND_ORGANIZATION ( #161, #68 ) ;
#44 = DATE_AND_TIME ( #66, #253 ) ;
#45 = ORIENTED_EDGE ( 'NONE', *, *, #1, .T. ) ;
#46 = COORDINATED_UNIVERSAL_TIME_OFFSET ( 1, 0, .AHEAD. ) ;
#47 = CARTESIAN_POINT ( 'NONE',  ( -4.250000000000000000, 0.000000000000000000, 5.000000000000000000 ) ) ;
#48 =( GEOMETRIC_REPRESENTATION_CONTEXT ( 3 ) GLOBAL_UNCERTAINTY_ASSIGNED_CONTEXT ( ( #176 ) ) GLOBAL_UNIT_ASSIGNED_CONTEXT ( ( #88, #89, #71 ) ) REPRESENTATION_CONTEXT ( 'NONE', 'WORKASPACE' ) );
#49 = PERSON_AND_ORGANIZATION ( #161, #68 ) ;
#50 = EDGE_CURVE ( 'NONE', #149, #129, #157, .T. ) ;
#51 = CIRCLE ( 'NONE', #67, 7.000000000000000000 ) ;
#52 = DIRECTION ( 'NONE',  ( -0.000000000000000000, -0.000000000000000000, -1.000000000000000000 ) ) ;
#53 = CARTESIAN_POINT ( 'NONE',  ( 0.000000000000000000, 0.000000000000000000, 5.000000000000000000 ) ) ;
#54 = APPROVAL ( #116, 'NEURÈENÝ' ) ;
#55 = DIRECTION ( 'NONE',  ( 0.000000000000000000, 0.000000000000000000, 1.000000000000000000 ) ) ;
#56 = ORIENTED_EDGE ( 'NONE', *, *, #144, .F. ) ;
#57 = CARTESIAN_POINT ( 'NONE',  ( 7.000000000000000000, 8.572527594031473190E-16, 0.000000000000000000 ) ) ;
#58 = EDGE_LOOP ( 'NONE', ( #191, #247 ) ) ;
#59 = CARTESIAN_POINT ( 'NONE',  ( 7.000000000000000000, 8.572527594031473190E-16, 5.000000000000000000 ) ) ;
#60 = CLOSED_SHELL ( 'NONE', ( #126, #8, #74, #153, #244, #83, #172 ) ) ;
#61 = COORDINATED_UNIVERSAL_TIME_OFFSET ( 1, 0, .AHEAD. ) ;
#62 = PERSON_AND_ORGANIZATION ( #161, #68 ) ;
#63 = LINE ( 'NONE', #138, #16 ) ;
#64 = COORDINATED_UNIVERSAL_TIME_OFFSET ( 1, 0, .AHEAD. ) ;
#65 = VERTEX_POINT ( 'NONE', #202 ) ;
#66 = CALENDAR_DATE ( 2022, 7, 7 ) ;
#67 = AXIS2_PLACEMENT_3D ( 'NONE', #84, #158, #159 ) ;
#68 = ORGANIZATION ( 'NEURÈENÝ', 'NEURÈENÝ', '' ) ;
#69 = FACE_OUTER_BOUND ( 'NONE', #173, .T. ) ;
#70 = CYLINDRICAL_SURFACE ( 'NONE', #210, 4.250000000000000000 ) ;
#71 =( NAMED_UNIT ( * ) SI_UNIT ( $, .STERADIAN. ) SOLID_ANGLE_UNIT ( ) );
#72 = ORIENTED_EDGE ( 'NONE', *, *, #50, .F. ) ;
#73 = DIRECTION ( 'NONE',  ( 1.000000000000000000, 0.000000000000000000, 0.000000000000000000 ) ) ;
#74 = ADVANCED_FACE ( 'NONE', ( #29 ), #201, .T. ) ;
#75 = ORIENTED_EDGE ( 'NONE', *, *, #144, .T. ) ;
#76 = DIRECTION ( 'NONE',  ( -0.000000000000000000, -0.000000000000000000, -1.000000000000000000 ) ) ;
#77 = CC_DESIGN_PERSON_AND_ORGANIZATION_ASSIGNMENT ( #195, #238, ( #123 ) ) ;
#78 = COORDINATED_UNIVERSAL_TIME_OFFSET ( 1, 0, .AHEAD. ) ;
#79 = PERSON_AND_ORGANIZATION_ROLE ( 'design_supplier' ) ;
#80 = AXIS2_PLACEMENT_3D ( 'NONE', #81, #9, #125 ) ;
#81 = CARTESIAN_POINT ( 'NONE',  ( 0.000000000000000000, 0.000000000000000000, 5.000000000000000000 ) ) ;
#82 = MECHANICAL_CONTEXT ( 'NONE', #12, 'mechanical' ) ;
#83 = ADVANCED_FACE ( 'NONE', ( #146 ), #27, .T. ) ;
#84 = CARTESIAN_POINT ( 'NONE',  ( 0.000000000000000000, 0.000000000000000000, 5.000000000000000000 ) ) ;
#85 = CARTESIAN_POINT ( 'NONE',  ( 0.000000000000000000, 0.000000000000000000, 255.0000000000000000 ) ) ;
#86 = CC_DESIGN_APPROVAL ( #54, ( #123 ) ) ;
#87 = DIRECTION ( 'NONE',  ( 0.000000000000000000, 0.000000000000000000, 1.000000000000000000 ) ) ;
#88 =( LENGTH_UNIT ( ) NAMED_UNIT ( * ) SI_UNIT ( .MILLI., .METRE. ) );
#89 =( NAMED_UNIT ( * ) PLANE_ANGLE_UNIT ( ) SI_UNIT ( $, .RADIAN. ) );
#90 = DIRECTION ( 'NONE',  ( 0.000000000000000000, 0.000000000000000000, 1.000000000000000000 ) ) ;
#91 = ORIENTED_EDGE ( 'NONE', *, *, #188, .T. ) ;
#92 = PLANE ( 'NONE',  #180 ) ;
#93 = ORIENTED_EDGE ( 'NONE', *, *, #28, .F. ) ;
#94 = LOCAL_TIME ( 19, 30, 8.000000000000000000, #175 ) ;
#95 = APPROVAL_ROLE ( '' ) ;
#96 = DATE_AND_TIME ( #160, #119 ) ;
#97 = AXIS2_PLACEMENT_3D ( 'NONE', #30, #103, #233 ) ;
#98 = ORIENTED_EDGE ( 'NONE', *, *, #198, .T. ) ;
#99 = EDGE_CURVE ( 'NONE', #42, #65, #245, .T. ) ;
#100 = SECURITY_CLASSIFICATION_LEVEL ( 'unclassified' ) ;
#101 = AXIS2_PLACEMENT_3D ( 'NONE', #207, #90, #73 ) ;
#102 = DIRECTION ( 'NONE',  ( -0.000000000000000000, -0.000000000000000000, -1.000000000000000000 ) ) ;
#103 = DIRECTION ( 'NONE',  ( 0.000000000000000000, 0.000000000000000000, 1.000000000000000000 ) ) ;
#104 = CARTESIAN_POINT ( 'NONE',  ( 0.000000000000000000, 0.000000000000000000, 5.000000000000000000 ) ) ;
#105 = CARTESIAN_POINT ( 'NONE',  ( 0.000000000000000000, 0.000000000000000000, 255.0000000000000000 ) ) ;
#106 = DIRECTION ( 'NONE',  ( -1.000000000000000000, 0.000000000000000000, 0.000000000000000000 ) ) ;
#107 = EDGE_CURVE ( 'NONE', #65, #42, #225, .T. ) ;
#108 = AXIS2_PLACEMENT_3D ( 'NONE', #31, #13, #147 ) ;
#109 = CARTESIAN_POINT ( 'NONE',  ( 0.000000000000000000, 0.000000000000000000, 5.000000000000000000 ) ) ;
#110 = ORIENTED_EDGE ( 'NONE', *, *, #216, .F. ) ;
#111 = CARTESIAN_POINT ( 'NONE',  ( 0.000000000000000000, 0.000000000000000000, 5.000000000000000000 ) ) ;
#112 = AXIS2_PLACEMENT_3D ( 'NONE', #163, #224, #242 ) ;
#113 = ORIENTED_EDGE ( 'NONE', *, *, #99, .F. ) ;
#114 = CALENDAR_DATE ( 2022, 7, 7 ) ;
#115 = APPROVAL_PERSON_ORGANIZATION ( #118, #192, #155 ) ;
#116 = APPROVAL_STATUS ( 'not_yet_approved' ) ;
#117 = EDGE_CURVE ( 'NONE', #18, #131, #26, .T. ) ;
#118 = PERSON_AND_ORGANIZATION ( #161, #68 ) ;
#119 = LOCAL_TIME ( 19, 30, 8.000000000000000000, #64 ) ;
#120 = CYLINDRICAL_SURFACE ( 'NONE', #234, 7.000000000000000000 ) ;
#121 = CALENDAR_DATE ( 2022, 7, 7 ) ;
#122 = LINE ( 'NONE', #23, #124 ) ;
#123 = PRODUCT_DEFINITION ( 'NEZNÁMÝ', '', #140, #194 ) ;
#124 = VECTOR ( 'NONE', #177, 1000.000000000000000 ) ;
#125 = DIRECTION ( 'NONE',  ( 1.000000000000000000, 0.000000000000000000, 0.000000000000000000 ) ) ;
#126 = ADVANCED_FACE ( 'NONE', ( #69 ), #70, .T. ) ;
#127 = DIRECTION ( 'NONE',  ( -0.000000000000000000, -0.000000000000000000, -1.000000000000000000 ) ) ;
#128 = CC_DESIGN_DATE_AND_TIME_ASSIGNMENT ( #174, #255, ( #148 ) ) ;
#129 = VERTEX_POINT ( 'NONE', #17 ) ;
#130 = CARTESIAN_POINT ( 'NONE',  ( -7.000000000000000000, 0.000000000000000000, 5.000000000000000000 ) ) ;
#131 = VERTEX_POINT ( 'NONE', #57 ) ;
#132 = CARTESIAN_POINT ( 'NONE',  ( 7.000000000000000000, 8.572527594031473190E-16, 5.000000000000000000 ) ) ;
#133 = VECTOR ( 'NONE', #76, 1000.000000000000000 ) ;
#134 = ORIENTED_EDGE ( 'NONE', *, *, #39, .F. ) ;
#135 = APPROVAL_STATUS ( 'not_yet_approved' ) ;
#136 = DATE_AND_TIME ( #121, #213 ) ;
#137 = AXIS2_PLACEMENT_3D ( 'NONE', #53, #127, #106 ) ;
#138 = CARTESIAN_POINT ( 'NONE',  ( -4.250000000000000000, 0.000000000000000000, 255.0000000000000000 ) ) ;
#139 = APPROVAL_DATE_TIME ( #136, #192 ) ;
#140 = PRODUCT_DEFINITION_FORMATION_WITH_SPECIFIED_SOURCE ( 'LIBOVOLNÝ', '', #205, .NOT_KNOWN. ) ;
#141 = ORIENTED_EDGE ( 'NONE', *, *, #1, .F. ) ;
#142 = DATE_TIME_ROLE ( 'creation_date' ) ;
#143 = CARTESIAN_POINT ( 'NONE',  ( 0.000000000000000000, 0.000000000000000000, 255.0000000000000000 ) ) ;
#144 = EDGE_CURVE ( 'NONE', #208, #21, #199, .T. ) ;
#145 = AXIS2_PLACEMENT_3D ( 'NONE', #111, #209, #152 ) ;
#146 = FACE_OUTER_BOUND ( 'NONE', #206, .T. ) ;
#147 = DIRECTION ( 'NONE',  ( 1.000000000000000000, 0.000000000000000000, 0.000000000000000000 ) ) ;
#148 = SECURITY_CLASSIFICATION ( '', '', #100 ) ;
#149 = VERTEX_POINT ( 'NONE', #132 ) ;
#150 = DIRECTION ( 'NONE',  ( 1.000000000000000000, 0.000000000000000000, -0.000000000000000000 ) ) ;
#151 = ORIENTED_EDGE ( 'NONE', *, *, #50, .T. ) ;
#152 = DIRECTION ( 'NONE',  ( 1.000000000000000000, 0.000000000000000000, 0.000000000000000000 ) ) ;
#153 = ADVANCED_FACE ( 'NONE', ( #169, #40 ), #34, .T. ) ;
#154 = CC_DESIGN_APPROVAL ( #192, ( #148 ) ) ;
#155 = APPROVAL_ROLE ( '' ) ;
#156 = PERSON_AND_ORGANIZATION ( #161, #68 ) ;
#157 = CIRCLE ( 'NONE', #80, 7.000000000000000000 ) ;
#158 = DIRECTION ( 'NONE',  ( 0.000000000000000000, 0.000000000000000000, 1.000000000000000000 ) ) ;
#159 = DIRECTION ( 'NONE',  ( 1.000000000000000000, 0.000000000000000000, 0.000000000000000000 ) ) ;
#160 = CALENDAR_DATE ( 2022, 7, 7 ) ;
#161 = PERSON ( 'NEURÈENÝ', 'NEURÈENÝ', 'NEURÈENÝ', ('NEURÈENÝ'), ('NEURÈENÝ'), ('NEURÈENÝ') ) ;
#162 = CC_DESIGN_PERSON_AND_ORGANIZATION_ASSIGNMENT ( #62, #196, ( #205 ) ) ;
#163 = CARTESIAN_POINT ( 'NONE',  ( 0.000000000000000000, 0.000000000000000000, 0.000000000000000000 ) ) ;
#164 = DIRECTION ( 'NONE',  ( 0.000000000000000000, 0.000000000000000000, 1.000000000000000000 ) ) ;
#165 = AXIS2_PLACEMENT_3D ( 'NONE', #204, #55, #11 ) ;
#166 = PLANE ( 'NONE',  #165 ) ;
#167 = PRODUCT_DEFINITION_SHAPE ( 'NONE', 'NONE',  #123 ) ;
#168 = APPROVAL_PERSON_ORGANIZATION ( #43, #241, #95 ) ;
#169 = FACE_BOUND ( 'NONE', #211, .T. ) ;
#170 = EDGE_LOOP ( 'NONE', ( #45, #151 ) ) ;
#171 = DIRECTION ( 'NONE',  ( 0.000000000000000000, 0.000000000000000000, 1.000000000000000000 ) ) ;
#172 = ADVANCED_FACE ( 'NONE', ( #231 ), #92, .T. ) ;
#173 = EDGE_LOOP ( 'NONE', ( #217, #37, #75, #134 ) ) ;
#174 = DATE_AND_TIME ( #235, #184 ) ;
#175 = COORDINATED_UNIVERSAL_TIME_OFFSET ( 1, 0, .AHEAD. ) ;
#176 = UNCERTAINTY_MEASURE_WITH_UNIT (LENGTH_MEASURE( 1.000000000000000082E-05 ), #88, 'distance_accuracy_value', 'NONE');
#177 = DIRECTION ( 'NONE',  ( -0.000000000000000000, -0.000000000000000000, -1.000000000000000000 ) ) ;
#178 = SHAPE_DEFINITION_REPRESENTATION ( #167, #24 ) ;
#179 = CIRCLE ( 'NONE', #101, 7.000000000000000000 ) ;
#180 = AXIS2_PLACEMENT_3D ( 'NONE', #14, #171, #249 ) ;
#181 = ORIENTED_EDGE ( 'NONE', *, *, #39, .T. ) ;
#182 = DIRECTION ( 'NONE',  ( 1.000000000000000000, 0.000000000000000000, 0.000000000000000000 ) ) ;
#183 = DIRECTION ( 'NONE',  ( -1.000000000000000000, 0.000000000000000000, 0.000000000000000000 ) ) ;
#184 = LOCAL_TIME ( 19, 30, 8.000000000000000000, #61 ) ;
#185 = PRODUCT_RELATED_PRODUCT_CATEGORY ( 'detail', '', ( #205 ) ) ;
#186 = DIRECTION ( 'NONE',  ( 0.000000000000000000, 0.000000000000000000, 1.000000000000000000 ) ) ;
#187 = ORIENTED_EDGE ( 'NONE', *, *, #99, .T. ) ;
#188 = EDGE_CURVE ( 'NONE', #131, #18, #179, .T. ) ;
#189 = CARTESIAN_POINT ( 'NONE',  ( 4.250000000000000000, 5.204748896376250699E-16, 5.000000000000000000 ) ) ;
#190 = ORIENTED_EDGE ( 'NONE', *, *, #216, .T. ) ;
#191 = ORIENTED_EDGE ( 'NONE', *, *, #117, .F. ) ;
#192 = APPROVAL ( #135, 'NEURÈENÝ' ) ;
#193 = PERSON_AND_ORGANIZATION_ROLE ( 'classification_officer' ) ;
#194 = DESIGN_CONTEXT ( 'detailed design', #246, 'design' ) ;
#195 = PERSON_AND_ORGANIZATION ( #161, #68 ) ;
#196 = PERSON_AND_ORGANIZATION_ROLE ( 'design_owner' ) ;
#197 = DIRECTION ( 'NONE',  ( -0.000000000000000000, -0.000000000000000000, -1.000000000000000000 ) ) ;
#198 = EDGE_CURVE ( 'NONE', #129, #18, #229, .T. ) ;
#199 = CIRCLE ( 'NONE', #145, 4.250000000000000000 ) ;
#200 = ORIENTED_EDGE ( 'NONE', *, *, #236, .T. ) ;
#201 = CYLINDRICAL_SURFACE ( 'NONE', #137, 7.000000000000000000 ) ;
#202 = CARTESIAN_POINT ( 'NONE',  ( 4.250000000000000000, 5.204748896376250699E-16, 255.0000000000000000 ) ) ;
#203 = DIRECTION ( 'NONE',  ( -0.000000000000000000, -0.000000000000000000, -1.000000000000000000 ) ) ;
#204 = CARTESIAN_POINT ( 'NONE',  ( 0.000000000000000000, 0.000000000000000000, 0.000000000000000000 ) ) ;
#205 = PRODUCT ( '4989', '4989', '', ( #82 ) ) ;
#206 = EDGE_LOOP ( 'NONE', ( #93, #113, #181, #200 ) ) ;
#207 = CARTESIAN_POINT ( 'NONE',  ( 0.000000000000000000, 0.000000000000000000, 0.000000000000000000 ) ) ;
#208 = VERTEX_POINT ( 'NONE', #189 ) ;
#209 = DIRECTION ( 'NONE',  ( 0.000000000000000000, 0.000000000000000000, 1.000000000000000000 ) ) ;
#210 = AXIS2_PLACEMENT_3D ( 'NONE', #143, #52, #226 ) ;
#211 = EDGE_LOOP ( 'NONE', ( #15, #56 ) ) ;
#212 = DATE_AND_TIME ( #114, #94 ) ;
#213 = LOCAL_TIME ( 19, 30, 8.000000000000000000, #46 ) ;
#214 = APPLICATION_PROTOCOL_DEFINITION ( 'international standard', 'config_control_design', 1994, #12 ) ;
#215 = APPLICATION_PROTOCOL_DEFINITION ( 'international standard', 'config_control_design', 1994, #246 ) ;
#216 = EDGE_CURVE ( 'NONE', #149, #131, #251, .T. ) ;
#217 = ORIENTED_EDGE ( 'NONE', *, *, #107, .F. ) ;
#218 = APPROVAL_PERSON_ORGANIZATION ( #4, #54, #19 ) ;
#219 = CARTESIAN_POINT ( 'NONE',  ( -7.000000000000000000, 0.000000000000000000, 0.000000000000000000 ) ) ;
#220 = APPROVAL_STATUS ( 'not_yet_approved' ) ;
#221 = VECTOR ( 'NONE', #36, 1000.000000000000000 ) ;
#222 = MANIFOLD_SOLID_BREP ( 'Pøidat vysunutím3', #60 ) ;
#223 = CC_DESIGN_PERSON_AND_ORGANIZATION_ASSIGNMENT ( #2, #20, ( #140 ) ) ;
#224 = DIRECTION ( 'NONE',  ( 0.000000000000000000, 0.000000000000000000, 1.000000000000000000 ) ) ;
#225 = CIRCLE ( 'NONE', #32, 4.250000000000000000 ) ;
#226 = DIRECTION ( 'NONE',  ( -1.000000000000000000, 0.000000000000000000, 0.000000000000000000 ) ) ;
#227 = FACE_OUTER_BOUND ( 'NONE', #58, .T. ) ;
#228 = EDGE_LOOP ( 'NONE', ( #110, #141, #98, #232 ) ) ;
#229 = LINE ( 'NONE', #130, #221 ) ;
#230 = ORIENTED_EDGE ( 'NONE', *, *, #107, .T. ) ;
#231 = FACE_OUTER_BOUND ( 'NONE', #250, .T. ) ;
#232 = ORIENTED_EDGE ( 'NONE', *, *, #117, .T. ) ;
#233 = DIRECTION ( 'NONE',  ( 1.000000000000000000, 0.000000000000000000, 0.000000000000000000 ) ) ;
#234 = AXIS2_PLACEMENT_3D ( 'NONE', #104, #197, #237 ) ;
#235 = CALENDAR_DATE ( 2022, 7, 7 ) ;
#236 = EDGE_CURVE ( 'NONE', #21, #208, #22, .T. ) ;
#237 = DIRECTION ( 'NONE',  ( -1.000000000000000000, 0.000000000000000000, 0.000000000000000000 ) ) ;
#238 = PERSON_AND_ORGANIZATION_ROLE ( 'creator' ) ;
#239 = FACE_OUTER_BOUND ( 'NONE', #252, .T. ) ;
#240 = APPROVAL_DATE_TIME ( #212, #241 ) ;
#241 = APPROVAL ( #220, 'NEURÈENÝ' ) ;
#242 = DIRECTION ( 'NONE',  ( 1.000000000000000000, 0.000000000000000000, 0.000000000000000000 ) ) ;
#243 = DIRECTION ( 'NONE',  ( 1.000000000000000000, 0.000000000000000000, 0.000000000000000000 ) ) ;
#244 = ADVANCED_FACE ( 'NONE', ( #227 ), #166, .F. ) ;
#245 = CIRCLE ( 'NONE', #254, 4.250000000000000000 ) ;
#246 = APPLICATION_CONTEXT ( 'configuration controlled 3d designs of mechanical parts and assemblies' ) ;
#247 = ORIENTED_EDGE ( 'NONE', *, *, #188, .F. ) ;
#248 = CC_DESIGN_PERSON_AND_ORGANIZATION_ASSIGNMENT ( #156, #193, ( #148 ) ) ;
#249 = DIRECTION ( 'NONE',  ( 1.000000000000000000, 0.000000000000000000, -0.000000000000000000 ) ) ;
#250 = EDGE_LOOP ( 'NONE', ( #187, #230 ) ) ;
#251 = LINE ( 'NONE', #59, #133 ) ;
#252 = EDGE_LOOP ( 'NONE', ( #72, #190, #91, #35 ) ) ;
#253 = LOCAL_TIME ( 19, 30, 8.000000000000000000, #78 ) ;
#254 = AXIS2_PLACEMENT_3D ( 'NONE', #7, #87, #182 ) ;
#255 = DATE_TIME_ROLE ( 'classification_date' ) ;
ENDSEC;
END-ISO-10303-21;
