ISO-10303-21;
HEADER;
FILE_DESCRIPTION (( 'STEP AP203' ),
    '1' );
FILE_NAME ('8b28.STEP',
    '2022-07-07T17:13:00',
    ( '' ),
    ( '' ),
    'SwSTEP 2.0',
    'SolidWorks 2019',
    '' );
FILE_SCHEMA (( 'CONFIG_CONTROL_DESIGN' ));
ENDSEC;

DATA;
#1 = ADVANCED_FACE ( 'NONE', ( #151 ), #47, .T. ) ;
#2 = VECTOR ( 'NONE', #219, 1000.000000000000000 ) ;
#3 = COORDINATED_UNIVERSAL_TIME_OFFSET ( 1, 0, .AHEAD. ) ;
#4 = DIRECTION ( 'NONE',  ( 1.000000000000000000, 0.000000000000000000, 0.000000000000000000 ) ) ;
#5 = EDGE_CURVE ( 'NONE', #89, #223, #248, .T. ) ;
#6 = DIRECTION ( 'NONE',  ( 1.000000000000000000, 0.000000000000000000, 0.000000000000000000 ) ) ;
#7 = PERSON_AND_ORGANIZATION_ROLE ( 'classification_officer' ) ;
#8 = EDGE_CURVE ( 'NONE', #169, #108, #156, .T. ) ;
#9 = ORIENTED_EDGE ( 'NONE', *, *, #215, .F. ) ;
#10 = EDGE_LOOP ( 'NONE', ( #52, #170 ) ) ;
#11 = DIRECTION ( 'NONE',  ( 0.000000000000000000, 0.000000000000000000, 1.000000000000000000 ) ) ;
#12 = SECURITY_CLASSIFICATION ( '', '', #241 ) ;
#13 = VERTEX_POINT ( 'NONE', #157 ) ;
#14 = CARTESIAN_POINT ( 'NONE',  ( 0.000000000000000000, 0.000000000000000000, 7.000000000000000000 ) ) ;
#15 = LOCAL_TIME ( 19, 13, 0.000000000000000000, #3 ) ;
#16 = CARTESIAN_POINT ( 'NONE',  ( 0.000000000000000000, 0.000000000000000000, 7.000000000000000000 ) ) ;
#17 = AXIS2_PLACEMENT_3D ( 'NONE', #249, #193, #208 ) ;
#18 = CARTESIAN_POINT ( 'NONE',  ( 0.000000000000000000, 0.000000000000000000, 507.0000000000000000 ) ) ;
#19 = LINE ( 'NONE', #182, #43 ) ;
#20 = APPROVAL ( #60, 'NEURÈENÝ' ) ;
#21 = APPLICATION_PROTOCOL_DEFINITION ( 'international standard', 'config_control_design', 1994, #84 ) ;
#22 = DATE_AND_TIME ( #123, #15 ) ;
#23 = CARTESIAN_POINT ( 'NONE',  ( -7.000000000000000000, 0.000000000000000000, 507.0000000000000000 ) ) ;
#24 = ADVANCED_FACE ( 'NONE', ( #116 ), #36, .T. ) ;
#25 = CC_DESIGN_SECURITY_CLASSIFICATION ( #12, ( #125 ) ) ;
#26 = PERSON_AND_ORGANIZATION_ROLE ( 'creator' ) ;
#27 = COORDINATED_UNIVERSAL_TIME_OFFSET ( 1, 0, .AHEAD. ) ;
#28 = MANIFOLD_SOLID_BREP ( 'Pøidat vysunutím3', #134 ) ;
#29 = ORIENTED_EDGE ( 'NONE', *, *, #8, .T. ) ;
#30 = DATE_AND_TIME ( #46, #75 ) ;
#31 = ORIENTED_EDGE ( 'NONE', *, *, #242, .T. ) ;
#32 = DIRECTION ( 'NONE',  ( 0.000000000000000000, 0.000000000000000000, 1.000000000000000000 ) ) ;
#33 = CC_DESIGN_DATE_AND_TIME_ASSIGNMENT ( #165, #239, ( #162 ) ) ;
#34 = DIRECTION ( 'NONE',  ( 1.000000000000000000, 0.000000000000000000, 0.000000000000000000 ) ) ;
#35 = DIRECTION ( 'NONE',  ( 1.000000000000000000, 0.000000000000000000, 0.000000000000000000 ) ) ;
#36 = CYLINDRICAL_SURFACE ( 'NONE', #161, 7.000000000000000000 ) ;
#37 = DIRECTION ( 'NONE',  ( 0.000000000000000000, 0.000000000000000000, 1.000000000000000000 ) ) ;
#38 = APPROVAL_PERSON_ORGANIZATION ( #222, #179, #50 ) ;
#39 = CARTESIAN_POINT ( 'NONE',  ( 0.000000000000000000, 0.000000000000000000, 0.000000000000000000 ) ) ;
#40 = APPROVAL_ROLE ( '' ) ;
#41 = EDGE_CURVE ( 'NONE', #13, #209, #174, .T. ) ;
#42 = DIRECTION ( 'NONE',  ( 1.000000000000000000, 0.000000000000000000, -0.000000000000000000 ) ) ;
#43 = VECTOR ( 'NONE', #210, 1000.000000000000000 ) ;
#44 = EDGE_CURVE ( 'NONE', #45, #89, #253, .T. ) ;
#45 = VERTEX_POINT ( 'NONE', #255 ) ;
#46 = CALENDAR_DATE ( 2022, 7, 7 ) ;
#47 = PLANE ( 'NONE',  #17 ) ;
#48 = AXIS2_PLACEMENT_3D ( 'NONE', #14, #37, #34 ) ;
#49 = CIRCLE ( 'NONE', #199, 7.000000000000000000 ) ;
#50 = APPROVAL_ROLE ( '' ) ;
#51 = ADVANCED_FACE ( 'NONE', ( #214 ), #54, .T. ) ;
#52 = ORIENTED_EDGE ( 'NONE', *, *, #215, .T. ) ;
#53 = ORIENTED_EDGE ( 'NONE', *, *, #44, .T. ) ;
#54 = CYLINDRICAL_SURFACE ( 'NONE', #201, 7.000000000000000000 ) ;
#55 = CARTESIAN_POINT ( 'NONE',  ( 0.000000000000000000, 0.000000000000000000, 7.000000000000000000 ) ) ;
#56 = FACE_BOUND ( 'NONE', #90, .T. ) ;
#57 = CARTESIAN_POINT ( 'NONE',  ( -11.00000000000000000, 0.000000000000000000, 7.000000000000000000 ) ) ;
#58 = AXIS2_PLACEMENT_3D ( 'NONE', #133, #138, #213 ) ;
#59 = FACE_OUTER_BOUND ( 'NONE', #129, .T. ) ;
#60 = APPROVAL_STATUS ( 'not_yet_approved' ) ;
#61 = UNCERTAINTY_MEASURE_WITH_UNIT (LENGTH_MEASURE( 1.000000000000000082E-05 ), #204, 'distance_accuracy_value', 'NONE');
#62 = PERSON_AND_ORGANIZATION_ROLE ( 'creator' ) ;
#63 = PERSON_AND_ORGANIZATION ( #176, #86 ) ;
#64 = CC_DESIGN_PERSON_AND_ORGANIZATION_ASSIGNMENT ( #168, #7, ( #12 ) ) ;
#65 = CARTESIAN_POINT ( 'NONE',  ( 7.000000000000000000, 8.572527594031473190E-16, 507.0000000000000000 ) ) ;
#66 = SHAPE_DEFINITION_REPRESENTATION ( #115, #195 ) ;
#67 = ORIENTED_EDGE ( 'NONE', *, *, #102, .F. ) ;
#68 = ORIENTED_EDGE ( 'NONE', *, *, #41, .F. ) ;
#69 = CALENDAR_DATE ( 2022, 7, 7 ) ;
#70 = VECTOR ( 'NONE', #211, 1000.000000000000000 ) ;
#71 = PERSON_AND_ORGANIZATION ( #176, #86 ) ;
#72 = ORIENTED_EDGE ( 'NONE', *, *, #140, .F. ) ;
#73 = EDGE_CURVE ( 'NONE', #45, #175, #152, .T. ) ;
#74 = EDGE_CURVE ( 'NONE', #175, #223, #197, .T. ) ;
#75 = LOCAL_TIME ( 19, 13, 0.000000000000000000, #87 ) ;
#76 = DIRECTION ( 'NONE',  ( -1.000000000000000000, 0.000000000000000000, 0.000000000000000000 ) ) ;
#77 = CARTESIAN_POINT ( 'NONE',  ( -7.000000000000000000, 0.000000000000000000, 507.0000000000000000 ) ) ;
#78 = FACE_OUTER_BOUND ( 'NONE', #10, .T. ) ;
#79 = DIRECTION ( 'NONE',  ( -0.000000000000000000, -0.000000000000000000, -1.000000000000000000 ) ) ;
#80 = PERSON_AND_ORGANIZATION ( #176, #86 ) ;
#81 = APPROVAL_DATE_TIME ( #22, #20 ) ;
#82 = AXIS2_PLACEMENT_3D ( 'NONE', #139, #117, #99 ) ;
#83 = COORDINATED_UNIVERSAL_TIME_OFFSET ( 1, 0, .AHEAD. ) ;
#84 = APPLICATION_CONTEXT ( 'configuration controlled 3d designs of mechanical parts and assemblies' ) ;
#85 = DIRECTION ( 'NONE',  ( 0.000000000000000000, 0.000000000000000000, 1.000000000000000000 ) ) ;
#86 = ORGANIZATION ( 'NEURÈENÝ', 'NEURÈENÝ', '' ) ;
#87 = COORDINATED_UNIVERSAL_TIME_OFFSET ( 1, 0, .AHEAD. ) ;
#88 = ORIENTED_EDGE ( 'NONE', *, *, #102, .T. ) ;
#89 = VERTEX_POINT ( 'NONE', #136 ) ;
#90 = EDGE_LOOP ( 'NONE', ( #132, #68 ) ) ;
#91 = COORDINATED_UNIVERSAL_TIME_OFFSET ( 1, 0, .AHEAD. ) ;
#92 = CIRCLE ( 'NONE', #235, 7.000000000000000000 ) ;
#93 = ORIENTED_EDGE ( 'NONE', *, *, #74, .T. ) ;
#94 = ADVANCED_FACE ( 'NONE', ( #59 ), #96, .T. ) ;
#95 = ORIENTED_EDGE ( 'NONE', *, *, #73, .F. ) ;
#96 = CYLINDRICAL_SURFACE ( 'NONE', #142, 11.00000000000000000 ) ;
#97 = DIRECTION ( 'NONE',  ( 1.000000000000000000, 0.000000000000000000, 0.000000000000000000 ) ) ;
#98 = CARTESIAN_POINT ( 'NONE',  ( 11.00000000000000000, 1.347111479062088405E-15, 7.000000000000000000 ) ) ;
#99 = DIRECTION ( 'NONE',  ( 1.000000000000000000, 0.000000000000000000, 0.000000000000000000 ) ) ;
#100 =( GEOMETRIC_REPRESENTATION_CONTEXT ( 3 ) GLOBAL_UNCERTAINTY_ASSIGNED_CONTEXT ( ( #61 ) ) GLOBAL_UNIT_ASSIGNED_CONTEXT ( ( #204, #216, #205 ) ) REPRESENTATION_CONTEXT ( 'NONE', 'WORKASPACE' ) );
#101 = CC_DESIGN_PERSON_AND_ORGANIZATION_ASSIGNMENT ( #163, #62, ( #162 ) ) ;
#102 = EDGE_CURVE ( 'NONE', #223, #89, #198, .T. ) ;
#103 = DIRECTION ( 'NONE',  ( 0.000000000000000000, 0.000000000000000000, 1.000000000000000000 ) ) ;
#104 = VECTOR ( 'NONE', #234, 1000.000000000000000 ) ;
#105 = PERSON_AND_ORGANIZATION_ROLE ( 'design_owner' ) ;
#106 = CALENDAR_DATE ( 2022, 7, 7 ) ;
#107 = DATE_AND_TIME ( #106, #227 ) ;
#108 = VERTEX_POINT ( 'NONE', #77 ) ;
#109 = APPROVAL_ROLE ( '' ) ;
#110 = ORIENTED_EDGE ( 'NONE', *, *, #144, .T. ) ;
#111 = CC_DESIGN_APPROVAL ( #20, ( #162 ) ) ;
#112 = ORIENTED_EDGE ( 'NONE', *, *, #8, .F. ) ;
#113 = ADVANCED_FACE ( 'NONE', ( #231 ), #178, .T. ) ;
#114 = EDGE_LOOP ( 'NONE', ( #67, #226 ) ) ;
#115 = PRODUCT_DEFINITION_SHAPE ( 'NONE', 'NONE',  #162 ) ;
#116 = FACE_OUTER_BOUND ( 'NONE', #187, .T. ) ;
#117 = DIRECTION ( 'NONE',  ( 0.000000000000000000, 0.000000000000000000, 1.000000000000000000 ) ) ;
#118 = APPROVAL_PERSON_ORGANIZATION ( #236, #20, #40 ) ;
#119 = DIRECTION ( 'NONE',  ( -1.000000000000000000, 0.000000000000000000, 0.000000000000000000 ) ) ;
#120 = CARTESIAN_POINT ( 'NONE',  ( 0.000000000000000000, 0.000000000000000000, 507.0000000000000000 ) ) ;
#121 = CC_DESIGN_APPROVAL ( #229, ( #125 ) ) ;
#122 = CARTESIAN_POINT ( 'NONE',  ( -11.00000000000000000, 0.000000000000000000, 7.000000000000000000 ) ) ;
#123 = CALENDAR_DATE ( 2022, 7, 7 ) ;
#124 = CARTESIAN_POINT ( 'NONE',  ( -11.00000000000000000, 0.000000000000000000, 0.000000000000000000 ) ) ;
#125 = PRODUCT_DEFINITION_FORMATION_WITH_SPECIFIED_SOURCE ( 'LIBOVOLNÝ', '', #250, .NOT_KNOWN. ) ;
#126 = ADVANCED_FACE ( 'NONE', ( #56, #78 ), #158, .T. ) ;
#127 = CARTESIAN_POINT ( 'NONE',  ( 0.000000000000000000, 0.000000000000000000, 7.000000000000000000 ) ) ;
#128 = CC_DESIGN_PERSON_AND_ORGANIZATION_ASSIGNMENT ( #80, #105, ( #250 ) ) ;
#129 = EDGE_LOOP ( 'NONE', ( #130, #9, #93, #88 ) ) ;
#130 = ORIENTED_EDGE ( 'NONE', *, *, #44, .F. ) ;
#131 = APPROVAL_DATE_TIME ( #107, #229 ) ;
#132 = ORIENTED_EDGE ( 'NONE', *, *, #203, .F. ) ;
#133 = CARTESIAN_POINT ( 'NONE',  ( 0.000000000000000000, 0.000000000000000000, 7.000000000000000000 ) ) ;
#134 = CLOSED_SHELL ( 'NONE', ( #24, #113, #94, #126, #167, #51, #1 ) ) ;
#135 = PLANE ( 'NONE',  #192 ) ;
#136 = CARTESIAN_POINT ( 'NONE',  ( 11.00000000000000000, 1.347111479062088405E-15, 0.000000000000000000 ) ) ;
#137 = LOCAL_TIME ( 19, 13, 0.000000000000000000, #83 ) ;
#138 = DIRECTION ( 'NONE',  ( 0.000000000000000000, 0.000000000000000000, 1.000000000000000000 ) ) ;
#139 = CARTESIAN_POINT ( 'NONE',  ( 0.000000000000000000, 0.000000000000000000, 0.000000000000000000 ) ) ;
#140 = EDGE_CURVE ( 'NONE', #108, #169, #92, .T. ) ;
#141 = CC_DESIGN_APPROVAL ( #179, ( #12 ) ) ;
#142 = AXIS2_PLACEMENT_3D ( 'NONE', #16, #155, #119 ) ;
#143 = CALENDAR_DATE ( 2022, 7, 7 ) ;
#144 = EDGE_CURVE ( 'NONE', #169, #13, #19, .T. ) ;
#145 = DIRECTION ( 'NONE',  ( 0.000000000000000000, 0.000000000000000000, 1.000000000000000000 ) ) ;
#146 = CARTESIAN_POINT ( 'NONE',  ( -7.000000000000000000, 0.000000000000000000, 7.000000000000000000 ) ) ;
#147 = DESIGN_CONTEXT ( 'detailed design', #252, 'design' ) ;
#148 = APPROVAL_STATUS ( 'not_yet_approved' ) ;
#149 = EDGE_LOOP ( 'NONE', ( #221, #29 ) ) ;
#150 = AXIS2_PLACEMENT_3D ( 'NONE', #39, #85, #237 ) ;
#151 = FACE_OUTER_BOUND ( 'NONE', #149, .T. ) ;
#152 = CIRCLE ( 'NONE', #48, 11.00000000000000000 ) ;
#153 = ORIENTED_EDGE ( 'NONE', *, *, #41, .T. ) ;
#154 = EDGE_LOOP ( 'NONE', ( #95, #53, #172, #188 ) ) ;
#155 = DIRECTION ( 'NONE',  ( -0.000000000000000000, -0.000000000000000000, -1.000000000000000000 ) ) ;
#156 = CIRCLE ( 'NONE', #217, 7.000000000000000000 ) ;
#157 = CARTESIAN_POINT ( 'NONE',  ( 7.000000000000000000, 8.572527594031473190E-16, 7.000000000000000000 ) ) ;
#158 = PLANE ( 'NONE',  #58 ) ;
#159 = LOCAL_TIME ( 19, 13, 0.000000000000000000, #27 ) ;
#160 = CARTESIAN_POINT ( 'NONE',  ( 0.000000000000000000, 0.000000000000000000, 507.0000000000000000 ) ) ;
#161 = AXIS2_PLACEMENT_3D ( 'NONE', #18, #79, #76 ) ;
#162 = PRODUCT_DEFINITION ( 'NEZNÁMÝ', '', #125, #147 ) ;
#163 = PERSON_AND_ORGANIZATION ( #176, #86 ) ;
#164 = CC_DESIGN_DATE_AND_TIME_ASSIGNMENT ( #245, #224, ( #12 ) ) ;
#165 = DATE_AND_TIME ( #143, #137 ) ;
#166 = DIRECTION ( 'NONE',  ( 0.000000000000000000, 0.000000000000000000, 1.000000000000000000 ) ) ;
#167 = ADVANCED_FACE ( 'NONE', ( #251 ), #135, .F. ) ;
#168 = PERSON_AND_ORGANIZATION ( #176, #86 ) ;
#169 = VERTEX_POINT ( 'NONE', #65 ) ;
#170 = ORIENTED_EDGE ( 'NONE', *, *, #73, .T. ) ;
#171 = APPROVAL_PERSON_ORGANIZATION ( #63, #229, #109 ) ;
#172 = ORIENTED_EDGE ( 'NONE', *, *, #5, .T. ) ;
#173 = APPROVAL_STATUS ( 'not_yet_approved' ) ;
#174 = CIRCLE ( 'NONE', #238, 7.000000000000000000 ) ;
#175 = VERTEX_POINT ( 'NONE', #122 ) ;
#176 = PERSON ( 'NEURÈENÝ', 'NEURÈENÝ', 'NEURÈENÝ', ('NEURÈENÝ'), ('NEURÈENÝ'), ('NEURÈENÝ') ) ;
#177 = DIRECTION ( 'NONE',  ( 1.000000000000000000, 0.000000000000000000, 0.000000000000000000 ) ) ;
#178 = CYLINDRICAL_SURFACE ( 'NONE', #206, 11.00000000000000000 ) ;
#179 = APPROVAL ( #173, 'NEURÈENÝ' ) ;
#180 = CARTESIAN_POINT ( 'NONE',  ( 0.000000000000000000, 0.000000000000000000, 0.000000000000000000 ) ) ;
#181 = DIRECTION ( 'NONE',  ( -0.000000000000000000, -0.000000000000000000, -1.000000000000000000 ) ) ;
#182 = CARTESIAN_POINT ( 'NONE',  ( 7.000000000000000000, 8.572527594031473190E-16, 507.0000000000000000 ) ) ;
#183 = MECHANICAL_CONTEXT ( 'NONE', #84, 'mechanical' ) ;
#184 = LINE ( 'NONE', #23, #2 ) ;
#185 = APPLICATION_PROTOCOL_DEFINITION ( 'international standard', 'config_control_design', 1994, #252 ) ;
#186 = PERSON_AND_ORGANIZATION ( #176, #86 ) ;
#187 = EDGE_LOOP ( 'NONE', ( #112, #110, #153, #244 ) ) ;
#188 = ORIENTED_EDGE ( 'NONE', *, *, #74, .F. ) ;
#189 = CARTESIAN_POINT ( 'NONE',  ( 0.000000000000000000, 0.000000000000000000, 0.000000000000000000 ) ) ;
#190 = PERSON_AND_ORGANIZATION_ROLE ( 'design_supplier' ) ;
#191 = ORIENTED_EDGE ( 'NONE', *, *, #203, .T. ) ;
#192 = AXIS2_PLACEMENT_3D ( 'NONE', #180, #145, #42 ) ;
#193 = DIRECTION ( 'NONE',  ( 0.000000000000000000, 0.000000000000000000, 1.000000000000000000 ) ) ;
#194 = DIRECTION ( 'NONE',  ( 1.000000000000000000, 0.000000000000000000, 0.000000000000000000 ) ) ;
#195 = ADVANCED_BREP_SHAPE_REPRESENTATION ( '8b28', ( #28, #150 ), #100 ) ;
#196 = DIRECTION ( 'NONE',  ( -1.000000000000000000, 0.000000000000000000, 0.000000000000000000 ) ) ;
#197 = LINE ( 'NONE', #57, #104 ) ;
#198 = CIRCLE ( 'NONE', #82, 11.00000000000000000 ) ;
#199 = AXIS2_PLACEMENT_3D ( 'NONE', #127, #103, #6 ) ;
#200 = DIRECTION ( 'NONE',  ( 0.000000000000000000, 0.000000000000000000, 1.000000000000000000 ) ) ;
#201 = AXIS2_PLACEMENT_3D ( 'NONE', #160, #233, #196 ) ;
#202 = CC_DESIGN_PERSON_AND_ORGANIZATION_ASSIGNMENT ( #71, #190, ( #125 ) ) ;
#203 = EDGE_CURVE ( 'NONE', #209, #13, #49, .T. ) ;
#204 =( LENGTH_UNIT ( ) NAMED_UNIT ( * ) SI_UNIT ( .MILLI., .METRE. ) );
#205 =( NAMED_UNIT ( * ) SI_UNIT ( $, .STERADIAN. ) SOLID_ANGLE_UNIT ( ) );
#206 = AXIS2_PLACEMENT_3D ( 'NONE', #212, #181, #254 ) ;
#207 = APPROVAL_DATE_TIME ( #30, #179 ) ;
#208 = DIRECTION ( 'NONE',  ( 1.000000000000000000, 0.000000000000000000, -0.000000000000000000 ) ) ;
#209 = VERTEX_POINT ( 'NONE', #146 ) ;
#210 = DIRECTION ( 'NONE',  ( -0.000000000000000000, -0.000000000000000000, -1.000000000000000000 ) ) ;
#211 = DIRECTION ( 'NONE',  ( -0.000000000000000000, -0.000000000000000000, -1.000000000000000000 ) ) ;
#212 = CARTESIAN_POINT ( 'NONE',  ( 0.000000000000000000, 0.000000000000000000, 7.000000000000000000 ) ) ;
#213 = DIRECTION ( 'NONE',  ( 1.000000000000000000, 0.000000000000000000, -0.000000000000000000 ) ) ;
#214 = FACE_OUTER_BOUND ( 'NONE', #225, .T. ) ;
#215 = EDGE_CURVE ( 'NONE', #175, #45, #220, .T. ) ;
#216 =( NAMED_UNIT ( * ) PLANE_ANGLE_UNIT ( ) SI_UNIT ( $, .RADIAN. ) );
#217 = AXIS2_PLACEMENT_3D ( 'NONE', #246, #230, #35 ) ;
#218 = CARTESIAN_POINT ( 'NONE',  ( 0.000000000000000000, 0.000000000000000000, 7.000000000000000000 ) ) ;
#219 = DIRECTION ( 'NONE',  ( -0.000000000000000000, -0.000000000000000000, -1.000000000000000000 ) ) ;
#220 = CIRCLE ( 'NONE', #240, 11.00000000000000000 ) ;
#221 = ORIENTED_EDGE ( 'NONE', *, *, #140, .T. ) ;
#222 = PERSON_AND_ORGANIZATION ( #176, #86 ) ;
#223 = VERTEX_POINT ( 'NONE', #124 ) ;
#224 = DATE_TIME_ROLE ( 'classification_date' ) ;
#225 = EDGE_LOOP ( 'NONE', ( #243, #72, #31, #191 ) ) ;
#226 = ORIENTED_EDGE ( 'NONE', *, *, #5, .F. ) ;
#227 = LOCAL_TIME ( 19, 13, 0.000000000000000000, #91 ) ;
#228 = AXIS2_PLACEMENT_3D ( 'NONE', #189, #11, #177 ) ;
#229 = APPROVAL ( #148, 'NEURÈENÝ' ) ;
#230 = DIRECTION ( 'NONE',  ( 0.000000000000000000, 0.000000000000000000, 1.000000000000000000 ) ) ;
#231 = FACE_OUTER_BOUND ( 'NONE', #154, .T. ) ;
#232 = CC_DESIGN_PERSON_AND_ORGANIZATION_ASSIGNMENT ( #186, #26, ( #125 ) ) ;
#233 = DIRECTION ( 'NONE',  ( -0.000000000000000000, -0.000000000000000000, -1.000000000000000000 ) ) ;
#234 = DIRECTION ( 'NONE',  ( -0.000000000000000000, -0.000000000000000000, -1.000000000000000000 ) ) ;
#235 = AXIS2_PLACEMENT_3D ( 'NONE', #120, #200, #97 ) ;
#236 = PERSON_AND_ORGANIZATION ( #176, #86 ) ;
#237 = DIRECTION ( 'NONE',  ( 1.000000000000000000, 0.000000000000000000, 0.000000000000000000 ) ) ;
#238 = AXIS2_PLACEMENT_3D ( 'NONE', #55, #32, #194 ) ;
#239 = DATE_TIME_ROLE ( 'creation_date' ) ;
#240 = AXIS2_PLACEMENT_3D ( 'NONE', #218, #166, #4 ) ;
#241 = SECURITY_CLASSIFICATION_LEVEL ( 'unclassified' ) ;
#242 = EDGE_CURVE ( 'NONE', #108, #209, #184, .T. ) ;
#243 = ORIENTED_EDGE ( 'NONE', *, *, #144, .F. ) ;
#244 = ORIENTED_EDGE ( 'NONE', *, *, #242, .F. ) ;
#245 = DATE_AND_TIME ( #69, #159 ) ;
#246 = CARTESIAN_POINT ( 'NONE',  ( 0.000000000000000000, 0.000000000000000000, 507.0000000000000000 ) ) ;
#247 = PRODUCT_RELATED_PRODUCT_CATEGORY ( 'detail', '', ( #250 ) ) ;
#248 = CIRCLE ( 'NONE', #228, 11.00000000000000000 ) ;
#249 = CARTESIAN_POINT ( 'NONE',  ( 0.000000000000000000, 0.000000000000000000, 507.0000000000000000 ) ) ;
#250 = PRODUCT ( '8b28', '8b28', '', ( #183 ) ) ;
#251 = FACE_OUTER_BOUND ( 'NONE', #114, .T. ) ;
#252 = APPLICATION_CONTEXT ( 'configuration controlled 3d designs of mechanical parts and assemblies' ) ;
#253 = LINE ( 'NONE', #98, #70 ) ;
#254 = DIRECTION ( 'NONE',  ( -1.000000000000000000, 0.000000000000000000, 0.000000000000000000 ) ) ;
#255 = CARTESIAN_POINT ( 'NONE',  ( 11.00000000000000000, 1.347111479062088405E-15, 7.000000000000000000 ) ) ;
ENDSEC;
END-ISO-10303-21;
