ISO-10303-21;
HEADER;
FILE_DESCRIPTION (( 'STEP AP203' ),
    '1' );
FILE_NAME ('fa08.STEP',
    '2022-07-07T17:20:23',
    ( '' ),
    ( '' ),
    'SwSTEP 2.0',
    'SolidWorks 2019',
    '' );
FILE_SCHEMA (( 'CONFIG_CONTROL_DESIGN' ));
ENDSEC;

DATA;
#1 = PERSON_AND_ORGANIZATION_ROLE ( 'creator' ) ;
#2 = ORIENTED_EDGE ( 'NONE', *, *, #180, .F. ) ;
#3 = ORIENTED_EDGE ( 'NONE', *, *, #62, .F. ) ;
#4 = EDGE_CURVE ( 'NONE', #228, #95, #47, .T. ) ;
#5 = VERTEX_POINT ( 'NONE', #185 ) ;
#6 = CARTESIAN_POINT ( 'NONE',  ( -9.000000000000000000, 0.000000000000000000, 7.000000000000000000 ) ) ;
#7 = CC_DESIGN_PERSON_AND_ORGANIZATION_ASSIGNMENT ( #177, #1, ( #253 ) ) ;
#8 = APPLICATION_CONTEXT ( 'configuration controlled 3d designs of mechanical parts and assemblies' ) ;
#9 = DIRECTION ( 'NONE',  ( 1.000000000000000000, 0.000000000000000000, -0.000000000000000000 ) ) ;
#10 = DIRECTION ( 'NONE',  ( 1.000000000000000000, 0.000000000000000000, 0.000000000000000000 ) ) ;
#11 = DIRECTION ( 'NONE',  ( 0.000000000000000000, 0.000000000000000000, 1.000000000000000000 ) ) ;
#12 = CIRCLE ( 'NONE', #248, 6.000000000000000888 ) ;
#13 = APPROVAL_ROLE ( '' ) ;
#14 = CARTESIAN_POINT ( 'NONE',  ( 0.000000000000000000, 0.000000000000000000, 132.0000000000000000 ) ) ;
#15 = CARTESIAN_POINT ( 'NONE',  ( 0.000000000000000000, 0.000000000000000000, 7.000000000000000000 ) ) ;
#16 = APPROVAL ( #115, 'NEURÈENÝ' ) ;
#17 = DATE_AND_TIME ( #197, #243 ) ;
#18 = ADVANCED_FACE ( 'NONE', ( #29 ), #119, .F. ) ;
#19 = CC_DESIGN_SECURITY_CLASSIFICATION ( #79, ( #240 ) ) ;
#20 = CARTESIAN_POINT ( 'NONE',  ( 0.000000000000000000, 0.000000000000000000, 0.000000000000000000 ) ) ;
#21 = PERSON_AND_ORGANIZATION ( #217, #61 ) ;
#22 = PERSON_AND_ORGANIZATION_ROLE ( 'design_supplier' ) ;
#23 = APPROVAL_PERSON_ORGANIZATION ( #218, #70, #13 ) ;
#24 = VECTOR ( 'NONE', #74, 1000.000000000000000 ) ;
#25 = PRODUCT_DEFINITION_SHAPE ( 'NONE', 'NONE',  #253 ) ;
#26 = ORIENTED_EDGE ( 'NONE', *, *, #60, .F. ) ;
#27 = DESIGN_CONTEXT ( 'detailed design', #90, 'design' ) ;
#28 = ORIENTED_EDGE ( 'NONE', *, *, #4, .T. ) ;
#29 = FACE_OUTER_BOUND ( 'NONE', #242, .T. ) ;
#30 = PLANE ( 'NONE',  #148 ) ;
#31 = DIRECTION ( 'NONE',  ( 0.000000000000000000, 0.000000000000000000, 1.000000000000000000 ) ) ;
#32 = LINE ( 'NONE', #235, #159 ) ;
#33 = AXIS2_PLACEMENT_3D ( 'NONE', #45, #227, #232 ) ;
#34 = FACE_OUTER_BOUND ( 'NONE', #66, .T. ) ;
#35 = CARTESIAN_POINT ( 'NONE',  ( 0.000000000000000000, 0.000000000000000000, 132.0000000000000000 ) ) ;
#36 = DIRECTION ( 'NONE',  ( 0.000000000000000000, 0.000000000000000000, 1.000000000000000000 ) ) ;
#37 = COORDINATED_UNIVERSAL_TIME_OFFSET ( 1, 0, .AHEAD. ) ;
#38 = CALENDAR_DATE ( 2022, 7, 7 ) ;
#39 = DATE_TIME_ROLE ( 'creation_date' ) ;
#40 = PERSON_AND_ORGANIZATION_ROLE ( 'creator' ) ;
#41 = DATE_AND_TIME ( #114, #140 ) ;
#42 = APPROVAL ( #252, 'NEURÈENÝ' ) ;
#43 = ORIENTED_EDGE ( 'NONE', *, *, #203, .T. ) ;
#44 = ORIENTED_EDGE ( 'NONE', *, *, #151, .T. ) ;
#45 = CARTESIAN_POINT ( 'NONE',  ( 0.000000000000000000, 0.000000000000000000, 0.000000000000000000 ) ) ;
#46 = ORIENTED_EDGE ( 'NONE', *, *, #212, .T. ) ;
#47 = CIRCLE ( 'NONE', #33, 9.000000000000000000 ) ;
#48 = DIRECTION ( 'NONE',  ( 0.000000000000000000, 0.000000000000000000, 1.000000000000000000 ) ) ;
#49 = CARTESIAN_POINT ( 'NONE',  ( -9.000000000000000000, 0.000000000000000000, 7.000000000000000000 ) ) ;
#50 = FACE_OUTER_BOUND ( 'NONE', #122, .T. ) ;
#51 = DIRECTION ( 'NONE',  ( -1.000000000000000000, 0.000000000000000000, 0.000000000000000000 ) ) ;
#52 = CC_DESIGN_PERSON_AND_ORGANIZATION_ASSIGNMENT ( #222, #40, ( #240 ) ) ;
#53 = CARTESIAN_POINT ( 'NONE',  ( 0.000000000000000000, 0.000000000000000000, 7.000000000000000000 ) ) ;
#54 =( NAMED_UNIT ( * ) PLANE_ANGLE_UNIT ( ) SI_UNIT ( $, .RADIAN. ) );
#55 = DATE_AND_TIME ( #155, #199 ) ;
#56 = LOCAL_TIME ( 19, 20, 23.00000000000000000, #57 ) ;
#57 = COORDINATED_UNIVERSAL_TIME_OFFSET ( 1, 0, .AHEAD. ) ;
#58 = AXIS2_PLACEMENT_3D ( 'NONE', #196, #89, #170 ) ;
#59 = ADVANCED_BREP_SHAPE_REPRESENTATION ( 'fa08', ( #239, #120 ), #168 ) ;
#60 = EDGE_CURVE ( 'NONE', #230, #95, #100, .T. ) ;
#61 = ORGANIZATION ( 'NEURÈENÝ', 'NEURÈENÝ', '' ) ;
#62 = EDGE_CURVE ( 'NONE', #98, #186, #202, .T. ) ;
#63 = AXIS2_PLACEMENT_3D ( 'NONE', #162, #48, #143 ) ;
#64 = ORIENTED_EDGE ( 'NONE', *, *, #180, .T. ) ;
#65 = FACE_BOUND ( 'NONE', #204, .T. ) ;
#66 = EDGE_LOOP ( 'NONE', ( #165, #2, #106, #46 ) ) ;
#67 = CIRCLE ( 'NONE', #58, 9.000000000000000000 ) ;
#68 = CARTESIAN_POINT ( 'NONE',  ( 9.000000000000000000, 1.102182119232617714E-15, 0.000000000000000000 ) ) ;
#69 = CARTESIAN_POINT ( 'NONE',  ( -6.000000000000000888, 0.000000000000000000, 132.0000000000000000 ) ) ;
#70 = APPROVAL ( #72, 'NEURÈENÝ' ) ;
#71 = DIRECTION ( 'NONE',  ( 1.000000000000000000, 0.000000000000000000, 0.000000000000000000 ) ) ;
#72 = APPROVAL_STATUS ( 'not_yet_approved' ) ;
#73 = DIRECTION ( 'NONE',  ( -0.000000000000000000, -0.000000000000000000, -1.000000000000000000 ) ) ;
#74 = DIRECTION ( 'NONE',  ( -0.000000000000000000, -0.000000000000000000, -1.000000000000000000 ) ) ;
#75 = AXIS2_PLACEMENT_3D ( 'NONE', #167, #251, #152 ) ;
#76 = SHAPE_DEFINITION_REPRESENTATION ( #25, #59 ) ;
#77 = COORDINATED_UNIVERSAL_TIME_OFFSET ( 1, 0, .AHEAD. ) ;
#78 = SECURITY_CLASSIFICATION_LEVEL ( 'unclassified' ) ;
#79 = SECURITY_CLASSIFICATION ( '', '', #78 ) ;
#80 = CALENDAR_DATE ( 2022, 7, 7 ) ;
#81 = AXIS2_PLACEMENT_3D ( 'NONE', #214, #211, #247 ) ;
#82 = ORIENTED_EDGE ( 'NONE', *, *, #142, .F. ) ;
#83 = ORIENTED_EDGE ( 'NONE', *, *, #226, .T. ) ;
#84 = ORIENTED_EDGE ( 'NONE', *, *, #203, .F. ) ;
#85 = FACE_OUTER_BOUND ( 'NONE', #96, .T. ) ;
#86 = CYLINDRICAL_SURFACE ( 'NONE', #75, 6.000000000000000888 ) ;
#87 = DIRECTION ( 'NONE',  ( -0.000000000000000000, -0.000000000000000000, -1.000000000000000000 ) ) ;
#88 = DATE_AND_TIME ( #38, #164 ) ;
#89 = DIRECTION ( 'NONE',  ( 0.000000000000000000, 0.000000000000000000, 1.000000000000000000 ) ) ;
#90 = APPLICATION_CONTEXT ( 'configuration controlled 3d designs of mechanical parts and assemblies' ) ;
#91 = DATE_TIME_ROLE ( 'classification_date' ) ;
#92 = CARTESIAN_POINT ( 'NONE',  ( 0.000000000000000000, 0.000000000000000000, 0.000000000000000000 ) ) ;
#93 = DIRECTION ( 'NONE',  ( 0.000000000000000000, 0.000000000000000000, 1.000000000000000000 ) ) ;
#94 = UNCERTAINTY_MEASURE_WITH_UNIT (LENGTH_MEASURE( 1.000000000000000082E-05 ), #174, 'distance_accuracy_value', 'NONE');
#95 = VERTEX_POINT ( 'NONE', #209 ) ;
#96 = EDGE_LOOP ( 'NONE', ( #210, #102, #43, #99 ) ) ;
#97 = CIRCLE ( 'NONE', #113, 6.000000000000000888 ) ;
#98 = VERTEX_POINT ( 'NONE', #124 ) ;
#99 = ORIENTED_EDGE ( 'NONE', *, *, #151, .F. ) ;
#100 = LINE ( 'NONE', #6, #161 ) ;
#101 = AXIS2_PLACEMENT_3D ( 'NONE', #14, #87, #147 ) ;
#102 = ORIENTED_EDGE ( 'NONE', *, *, #136, .T. ) ;
#103 = CIRCLE ( 'NONE', #221, 9.000000000000000000 ) ;
#104 = ORIENTED_EDGE ( 'NONE', *, *, #62, .T. ) ;
#105 = ADVANCED_FACE ( 'NONE', ( #65, #160 ), #30, .T. ) ;
#106 = ORIENTED_EDGE ( 'NONE', *, *, #60, .T. ) ;
#107 = CARTESIAN_POINT ( 'NONE',  ( 6.000000000000000888, 7.347880794884120722E-16, 132.0000000000000000 ) ) ;
#108 = CYLINDRICAL_SURFACE ( 'NONE', #179, 9.000000000000000000 ) ;
#109 = FACE_OUTER_BOUND ( 'NONE', #205, .T. ) ;
#110 = FACE_OUTER_BOUND ( 'NONE', #127, .T. ) ;
#111 = DIRECTION ( 'NONE',  ( 1.000000000000000000, 0.000000000000000000, 0.000000000000000000 ) ) ;
#112 = MECHANICAL_CONTEXT ( 'NONE', #8, 'mechanical' ) ;
#113 = AXIS2_PLACEMENT_3D ( 'NONE', #35, #11, #71 ) ;
#114 = CALENDAR_DATE ( 2022, 7, 7 ) ;
#115 = APPROVAL_STATUS ( 'not_yet_approved' ) ;
#116 = PRODUCT ( 'fa08', 'fa08', '', ( #112 ) ) ;
#117 = CC_DESIGN_APPROVAL ( #42, ( #253 ) ) ;
#118 = ORIENTED_EDGE ( 'NONE', *, *, #175, .T. ) ;
#119 = PLANE ( 'NONE',  #63 ) ;
#120 = AXIS2_PLACEMENT_3D ( 'NONE', #20, #93, #111 ) ;
#121 = ORIENTED_EDGE ( 'NONE', *, *, #194, .T. ) ;
#122 = EDGE_LOOP ( 'NONE', ( #82, #118, #28, #26 ) ) ;
#123 = ADVANCED_FACE ( 'NONE', ( #85 ), #245, .T. ) ;
#124 = CARTESIAN_POINT ( 'NONE',  ( -6.000000000000000888, 0.000000000000000000, 7.000000000000000000 ) ) ;
#125 = DIRECTION ( 'NONE',  ( -0.000000000000000000, -0.000000000000000000, -1.000000000000000000 ) ) ;
#126 = LINE ( 'NONE', #107, #171 ) ;
#127 = EDGE_LOOP ( 'NONE', ( #121, #83 ) ) ;
#128 = APPROVAL_PERSON_ORGANIZATION ( #181, #16, #255 ) ;
#129 = CARTESIAN_POINT ( 'NONE',  ( 0.000000000000000000, 0.000000000000000000, 132.0000000000000000 ) ) ;
#130 = APPLICATION_PROTOCOL_DEFINITION ( 'international standard', 'config_control_design', 1994, #8 ) ;
#131 = CC_DESIGN_DATE_AND_TIME_ASSIGNMENT ( #134, #91, ( #79 ) ) ;
#132 = APPROVAL_DATE_TIME ( #55, #16 ) ;
#133 = AXIS2_PLACEMENT_3D ( 'NONE', #195, #166, #246 ) ;
#134 = DATE_AND_TIME ( #80, #56 ) ;
#135 = CIRCLE ( 'NONE', #156, 9.000000000000000000 ) ;
#136 = EDGE_CURVE ( 'NONE', #144, #186, #126, .T. ) ;
#137 = ADVANCED_FACE ( 'NONE', ( #34 ), #190, .T. ) ;
#138 = ORIENTED_EDGE ( 'NONE', *, *, #142, .T. ) ;
#139 = EDGE_LOOP ( 'NONE', ( #64, #138 ) ) ;
#140 = LOCAL_TIME ( 19, 20, 23.00000000000000000, #254 ) ;
#141 = CC_DESIGN_DATE_AND_TIME_ASSIGNMENT ( #41, #39, ( #253 ) ) ;
#142 = EDGE_CURVE ( 'NONE', #184, #230, #67, .T. ) ;
#143 = DIRECTION ( 'NONE',  ( 1.000000000000000000, 0.000000000000000000, -0.000000000000000000 ) ) ;
#144 = VERTEX_POINT ( 'NONE', #150 ) ;
#145 = DIRECTION ( 'NONE',  ( 1.000000000000000000, 0.000000000000000000, -0.000000000000000000 ) ) ;
#146 = DIRECTION ( 'NONE',  ( 0.000000000000000000, 0.000000000000000000, 1.000000000000000000 ) ) ;
#147 = DIRECTION ( 'NONE',  ( -1.000000000000000000, 0.000000000000000000, 0.000000000000000000 ) ) ;
#148 = AXIS2_PLACEMENT_3D ( 'NONE', #188, #31, #9 ) ;
#149 = APPROVAL_DATE_TIME ( #88, #70 ) ;
#150 = CARTESIAN_POINT ( 'NONE',  ( 6.000000000000000888, 7.347880794884120722E-16, 132.0000000000000000 ) ) ;
#151 = EDGE_CURVE ( 'NONE', #5, #98, #250, .T. ) ;
#152 = DIRECTION ( 'NONE',  ( -1.000000000000000000, 0.000000000000000000, 0.000000000000000000 ) ) ;
#153 = PERSON_AND_ORGANIZATION ( #217, #61 ) ;
#154 = ADVANCED_FACE ( 'NONE', ( #110 ), #234, .T. ) ;
#155 = CALENDAR_DATE ( 2022, 7, 7 ) ;
#156 = AXIS2_PLACEMENT_3D ( 'NONE', #92, #233, #173 ) ;
#157 = PERSON_AND_ORGANIZATION ( #217, #61 ) ;
#158 = PRODUCT_RELATED_PRODUCT_CATEGORY ( 'detail', '', ( #116 ) ) ;
#159 = VECTOR ( 'NONE', #125, 1000.000000000000000 ) ;
#160 = FACE_OUTER_BOUND ( 'NONE', #139, .T. ) ;
#161 = VECTOR ( 'NONE', #187, 1000.000000000000000 ) ;
#162 = CARTESIAN_POINT ( 'NONE',  ( 0.000000000000000000, 0.000000000000000000, 0.000000000000000000 ) ) ;
#163 = DIRECTION ( 'NONE',  ( 0.000000000000000000, 0.000000000000000000, 1.000000000000000000 ) ) ;
#164 = LOCAL_TIME ( 19, 20, 23.00000000000000000, #191 ) ;
#165 = ORIENTED_EDGE ( 'NONE', *, *, #175, .F. ) ;
#166 = DIRECTION ( 'NONE',  ( 0.000000000000000000, 0.000000000000000000, 1.000000000000000000 ) ) ;
#167 = CARTESIAN_POINT ( 'NONE',  ( 0.000000000000000000, 0.000000000000000000, 132.0000000000000000 ) ) ;
#168 =( GEOMETRIC_REPRESENTATION_CONTEXT ( 3 ) GLOBAL_UNCERTAINTY_ASSIGNED_CONTEXT ( ( #94 ) ) GLOBAL_UNIT_ASSIGNED_CONTEXT ( ( #174, #54, #200 ) ) REPRESENTATION_CONTEXT ( 'NONE', 'WORKASPACE' ) );
#169 = DIRECTION ( 'NONE',  ( 0.000000000000000000, 0.000000000000000000, 1.000000000000000000 ) ) ;
#170 = DIRECTION ( 'NONE',  ( 1.000000000000000000, 0.000000000000000000, 0.000000000000000000 ) ) ;
#171 = VECTOR ( 'NONE', #73, 1000.000000000000000 ) ;
#172 = ADVANCED_FACE ( 'NONE', ( #50 ), #108, .T. ) ;
#173 = DIRECTION ( 'NONE',  ( 1.000000000000000000, 0.000000000000000000, 0.000000000000000000 ) ) ;
#174 =( LENGTH_UNIT ( ) NAMED_UNIT ( * ) SI_UNIT ( .MILLI., .METRE. ) );
#175 = EDGE_CURVE ( 'NONE', #184, #228, #32, .T. ) ;
#176 = CIRCLE ( 'NONE', #133, 6.000000000000000888 ) ;
#177 = PERSON_AND_ORGANIZATION ( #217, #61 ) ;
#178 = PERSON_AND_ORGANIZATION ( #217, #61 ) ;
#179 = AXIS2_PLACEMENT_3D ( 'NONE', #15, #216, #51 ) ;
#180 = EDGE_CURVE ( 'NONE', #230, #184, #103, .T. ) ;
#181 = PERSON_AND_ORGANIZATION ( #217, #61 ) ;
#182 = CC_DESIGN_PERSON_AND_ORGANIZATION_ASSIGNMENT ( #157, #238, ( #79 ) ) ;
#183 = AXIS2_PLACEMENT_3D ( 'NONE', #229, #163, #244 ) ;
#184 = VERTEX_POINT ( 'NONE', #236 ) ;
#185 = CARTESIAN_POINT ( 'NONE',  ( -6.000000000000000888, 0.000000000000000000, 132.0000000000000000 ) ) ;
#186 = VERTEX_POINT ( 'NONE', #249 ) ;
#187 = DIRECTION ( 'NONE',  ( -0.000000000000000000, -0.000000000000000000, -1.000000000000000000 ) ) ;
#188 = CARTESIAN_POINT ( 'NONE',  ( 0.000000000000000000, 0.000000000000000000, 7.000000000000000000 ) ) ;
#189 = ORIENTED_EDGE ( 'NONE', *, *, #4, .F. ) ;
#190 = CYLINDRICAL_SURFACE ( 'NONE', #81, 9.000000000000000000 ) ;
#191 = COORDINATED_UNIVERSAL_TIME_OFFSET ( 1, 0, .AHEAD. ) ;
#192 = DIRECTION ( 'NONE',  ( 1.000000000000000000, 0.000000000000000000, 0.000000000000000000 ) ) ;
#193 = CC_DESIGN_APPROVAL ( #16, ( #240 ) ) ;
#194 = EDGE_CURVE ( 'NONE', #5, #144, #97, .T. ) ;
#195 = CARTESIAN_POINT ( 'NONE',  ( 0.000000000000000000, 0.000000000000000000, 132.0000000000000000 ) ) ;
#196 = CARTESIAN_POINT ( 'NONE',  ( 0.000000000000000000, 0.000000000000000000, 7.000000000000000000 ) ) ;
#197 = CALENDAR_DATE ( 2022, 7, 7 ) ;
#198 = ORIENTED_EDGE ( 'NONE', *, *, #136, .F. ) ;
#199 = LOCAL_TIME ( 19, 20, 23.00000000000000000, #77 ) ;
#200 =( NAMED_UNIT ( * ) SI_UNIT ( $, .STERADIAN. ) SOLID_ANGLE_UNIT ( ) );
#201 = APPLICATION_PROTOCOL_DEFINITION ( 'international standard', 'config_control_design', 1994, #90 ) ;
#202 = CIRCLE ( 'NONE', #183, 6.000000000000000888 ) ;
#203 = EDGE_CURVE ( 'NONE', #186, #98, #12, .T. ) ;
#204 = EDGE_LOOP ( 'NONE', ( #3, #84 ) ) ;
#205 = EDGE_LOOP ( 'NONE', ( #198, #207, #44, #104 ) ) ;
#206 = CC_DESIGN_APPROVAL ( #70, ( #79 ) ) ;
#207 = ORIENTED_EDGE ( 'NONE', *, *, #194, .F. ) ;
#208 = AXIS2_PLACEMENT_3D ( 'NONE', #129, #146, #145 ) ;
#209 = CARTESIAN_POINT ( 'NONE',  ( -9.000000000000000000, 0.000000000000000000, 0.000000000000000000 ) ) ;
#210 = ORIENTED_EDGE ( 'NONE', *, *, #226, .F. ) ;
#211 = DIRECTION ( 'NONE',  ( -0.000000000000000000, -0.000000000000000000, -1.000000000000000000 ) ) ;
#212 = EDGE_CURVE ( 'NONE', #95, #228, #135, .T. ) ;
#213 = CARTESIAN_POINT ( 'NONE',  ( 0.000000000000000000, 0.000000000000000000, 7.000000000000000000 ) ) ;
#214 = CARTESIAN_POINT ( 'NONE',  ( 0.000000000000000000, 0.000000000000000000, 7.000000000000000000 ) ) ;
#215 = APPROVAL_PERSON_ORGANIZATION ( #178, #42, #219 ) ;
#216 = DIRECTION ( 'NONE',  ( -0.000000000000000000, -0.000000000000000000, -1.000000000000000000 ) ) ;
#217 = PERSON ( 'NEURÈENÝ', 'NEURÈENÝ', 'NEURÈENÝ', ('NEURÈENÝ'), ('NEURÈENÝ'), ('NEURÈENÝ') ) ;
#218 = PERSON_AND_ORGANIZATION ( #217, #61 ) ;
#219 = APPROVAL_ROLE ( '' ) ;
#220 = APPROVAL_DATE_TIME ( #17, #42 ) ;
#221 = AXIS2_PLACEMENT_3D ( 'NONE', #213, #169, #192 ) ;
#222 = PERSON_AND_ORGANIZATION ( #217, #61 ) ;
#223 = ADVANCED_FACE ( 'NONE', ( #109 ), #86, .T. ) ;
#224 = CLOSED_SHELL ( 'NONE', ( #123, #172, #137, #105, #18, #223, #154 ) ) ;
#225 = CC_DESIGN_PERSON_AND_ORGANIZATION_ASSIGNMENT ( #21, #22, ( #240 ) ) ;
#226 = EDGE_CURVE ( 'NONE', #144, #5, #176, .T. ) ;
#227 = DIRECTION ( 'NONE',  ( 0.000000000000000000, 0.000000000000000000, 1.000000000000000000 ) ) ;
#228 = VERTEX_POINT ( 'NONE', #68 ) ;
#229 = CARTESIAN_POINT ( 'NONE',  ( 0.000000000000000000, 0.000000000000000000, 7.000000000000000000 ) ) ;
#230 = VERTEX_POINT ( 'NONE', #49 ) ;
#231 = CC_DESIGN_PERSON_AND_ORGANIZATION_ASSIGNMENT ( #153, #237, ( #116 ) ) ;
#232 = DIRECTION ( 'NONE',  ( 1.000000000000000000, 0.000000000000000000, 0.000000000000000000 ) ) ;
#233 = DIRECTION ( 'NONE',  ( 0.000000000000000000, 0.000000000000000000, 1.000000000000000000 ) ) ;
#234 = PLANE ( 'NONE',  #208 ) ;
#235 = CARTESIAN_POINT ( 'NONE',  ( 9.000000000000000000, 1.102182119232617714E-15, 7.000000000000000000 ) ) ;
#236 = CARTESIAN_POINT ( 'NONE',  ( 9.000000000000000000, 1.102182119232617714E-15, 7.000000000000000000 ) ) ;
#237 = PERSON_AND_ORGANIZATION_ROLE ( 'design_owner' ) ;
#238 = PERSON_AND_ORGANIZATION_ROLE ( 'classification_officer' ) ;
#239 = MANIFOLD_SOLID_BREP ( 'Pøidat vysunutím3', #224 ) ;
#240 = PRODUCT_DEFINITION_FORMATION_WITH_SPECIFIED_SOURCE ( 'LIBOVOLNÝ', '', #116, .NOT_KNOWN. ) ;
#241 = ORIENTED_EDGE ( 'NONE', *, *, #212, .F. ) ;
#242 = EDGE_LOOP ( 'NONE', ( #241, #189 ) ) ;
#243 = LOCAL_TIME ( 19, 20, 23.00000000000000000, #37 ) ;
#244 = DIRECTION ( 'NONE',  ( 1.000000000000000000, 0.000000000000000000, 0.000000000000000000 ) ) ;
#245 = CYLINDRICAL_SURFACE ( 'NONE', #101, 6.000000000000000888 ) ;
#246 = DIRECTION ( 'NONE',  ( 1.000000000000000000, 0.000000000000000000, 0.000000000000000000 ) ) ;
#247 = DIRECTION ( 'NONE',  ( -1.000000000000000000, 0.000000000000000000, 0.000000000000000000 ) ) ;
#248 = AXIS2_PLACEMENT_3D ( 'NONE', #53, #36, #10 ) ;
#249 = CARTESIAN_POINT ( 'NONE',  ( 6.000000000000000888, 7.347880794884120722E-16, 7.000000000000000000 ) ) ;
#250 = LINE ( 'NONE', #69, #24 ) ;
#251 = DIRECTION ( 'NONE',  ( -0.000000000000000000, -0.000000000000000000, -1.000000000000000000 ) ) ;
#252 = APPROVAL_STATUS ( 'not_yet_approved' ) ;
#253 = PRODUCT_DEFINITION ( 'NEZNÁMÝ', '', #240, #27 ) ;
#254 = COORDINATED_UNIVERSAL_TIME_OFFSET ( 1, 0, .AHEAD. ) ;
#255 = APPROVAL_ROLE ( '' ) ;
ENDSEC;
END-ISO-10303-21;
