ISO-10303-21;
HEADER;
FILE_DESCRIPTION (( 'STEP AP203' ),
    '1' );
FILE_NAME ('826d.STEP',
    '2023-02-13T13:13:05',
    ( '' ),
    ( '' ),
    'SwSTEP 2.0',
    'SolidWorks 2019',
    '' );
FILE_SCHEMA (( 'CONFIG_CONTROL_DESIGN' ));
ENDSEC;

DATA;
#1 = DIRECTION ( 'NONE',  ( 1.000000000000000000, 0.000000000000000000, 0.000000000000000000 ) ) ;
#2 = COORDINATED_UNIVERSAL_TIME_OFFSET ( 1, 0, .AHEAD. ) ;
#3 = VERTEX_POINT ( 'NONE', #54 ) ;
#4 = CC_DESIGN_PERSON_AND_ORGANIZATION_ASSIGNMENT ( #52, #248, ( #150 ) ) ;
#5 = CARTESIAN_POINT ( 'NONE',  ( 0.000000000000000000, 0.000000000000000000, 315.0000000000000000 ) ) ;
#6 = ORIENTED_EDGE ( 'NONE', *, *, #115, .T. ) ;
#7 = ORIENTED_EDGE ( 'NONE', *, *, #34, .T. ) ;
#8 = CARTESIAN_POINT ( 'NONE',  ( -8.000000000000000000, 0.000000000000000000, 5.000000000000000000 ) ) ;
#9 = DIRECTION ( 'NONE',  ( -1.000000000000000000, 0.000000000000000000, 0.000000000000000000 ) ) ;
#10 = VERTEX_POINT ( 'NONE', #159 ) ;
#11 = FACE_OUTER_BOUND ( 'NONE', #130, .T. ) ;
#12 = PERSON_AND_ORGANIZATION ( #254, #185 ) ;
#13 = FACE_OUTER_BOUND ( 'NONE', #114, .T. ) ;
#14 = CIRCLE ( 'NONE', #183, 8.000000000000000000 ) ;
#15 = APPROVAL_PERSON_ORGANIZATION ( #12, #45, #251 ) ;
#16 = DIRECTION ( 'NONE',  ( 0.000000000000000000, 0.000000000000000000, 1.000000000000000000 ) ) ;
#17 = CARTESIAN_POINT ( 'NONE',  ( -5.250000000000000000, 0.000000000000000000, 5.000000000000000000 ) ) ;
#18 = CIRCLE ( 'NONE', #32, 5.250000000000000000 ) ;
#19 = PRODUCT_DEFINITION_FORMATION_WITH_SPECIFIED_SOURCE ( 'LIBOVOLNÝ', '', #142, .NOT_KNOWN. ) ;
#20 = PERSON_AND_ORGANIZATION ( #254, #185 ) ;
#21 = CARTESIAN_POINT ( 'NONE',  ( 0.000000000000000000, 0.000000000000000000, 5.000000000000000000 ) ) ;
#22 = VERTEX_POINT ( 'NONE', #39 ) ;
#23 = APPLICATION_PROTOCOL_DEFINITION ( 'international standard', 'config_control_design', 1994, #164 ) ;
#24 = ORIENTED_EDGE ( 'NONE', *, *, #144, .T. ) ;
#25 = EDGE_CURVE ( 'NONE', #29, #22, #139, .T. ) ;
#26 =( NAMED_UNIT ( * ) SI_UNIT ( $, .STERADIAN. ) SOLID_ANGLE_UNIT ( ) );
#27 = EDGE_LOOP ( 'NONE', ( #187, #181, #226, #128 ) ) ;
#28 = DIRECTION ( 'NONE',  ( -0.000000000000000000, -0.000000000000000000, -1.000000000000000000 ) ) ;
#29 = VERTEX_POINT ( 'NONE', #177 ) ;
#30 = CARTESIAN_POINT ( 'NONE',  ( 5.250000000000000000, 6.429395695523604153E-16, 315.0000000000000000 ) ) ;
#31 = ORIENTED_EDGE ( 'NONE', *, *, #76, .T. ) ;
#32 = AXIS2_PLACEMENT_3D ( 'NONE', #215, #156, #198 ) ;
#33 = SHAPE_DEFINITION_REPRESENTATION ( #98, #117 ) ;
#34 = EDGE_CURVE ( 'NONE', #87, #3, #84, .T. ) ;
#35 = CARTESIAN_POINT ( 'NONE',  ( 0.000000000000000000, 0.000000000000000000, 5.000000000000000000 ) ) ;
#36 = CYLINDRICAL_SURFACE ( 'NONE', #51, 5.250000000000000000 ) ;
#37 = APPROVAL_ROLE ( '' ) ;
#38 = DATE_AND_TIME ( #194, #102 ) ;
#39 = CARTESIAN_POINT ( 'NONE',  ( 8.000000000000000000, 9.797174393178825657E-16, 0.000000000000000000 ) ) ;
#40 = DIRECTION ( 'NONE',  ( -0.000000000000000000, -0.000000000000000000, -1.000000000000000000 ) ) ;
#41 = AXIS2_PLACEMENT_3D ( 'NONE', #255, #43, #81 ) ;
#42 = FACE_OUTER_BOUND ( 'NONE', #111, .T. ) ;
#43 = DIRECTION ( 'NONE',  ( 0.000000000000000000, 0.000000000000000000, 1.000000000000000000 ) ) ;
#44 = ORIENTED_EDGE ( 'NONE', *, *, #232, .F. ) ;
#45 = APPROVAL ( #216, 'NEURÈENÝ' ) ;
#46 =( LENGTH_UNIT ( ) NAMED_UNIT ( * ) SI_UNIT ( .MILLI., .METRE. ) );
#47 = EDGE_CURVE ( 'NONE', #3, #87, #48, .T. ) ;
#48 = CIRCLE ( 'NONE', #252, 8.000000000000000000 ) ;
#49 = CARTESIAN_POINT ( 'NONE',  ( 8.000000000000000000, 9.797174393178825657E-16, 5.000000000000000000 ) ) ;
#50 = ORIENTED_EDGE ( 'NONE', *, *, #232, .T. ) ;
#51 = AXIS2_PLACEMENT_3D ( 'NONE', #192, #100, #9 ) ;
#52 = PERSON_AND_ORGANIZATION ( #254, #185 ) ;
#53 = AXIS2_PLACEMENT_3D ( 'NONE', #244, #188, #241 ) ;
#54 = CARTESIAN_POINT ( 'NONE',  ( 8.000000000000000000, 9.797174393178825657E-16, 5.000000000000000000 ) ) ;
#55 = ADVANCED_FACE ( 'NONE', ( #231, #11 ), #79, .T. ) ;
#56 = DIRECTION ( 'NONE',  ( 0.000000000000000000, 0.000000000000000000, 1.000000000000000000 ) ) ;
#57 = DIRECTION ( 'NONE',  ( 1.000000000000000000, 0.000000000000000000, 0.000000000000000000 ) ) ;
#58 = CC_DESIGN_APPROVAL ( #66, ( #228 ) ) ;
#59 = CARTESIAN_POINT ( 'NONE',  ( -5.250000000000000000, 0.000000000000000000, 315.0000000000000000 ) ) ;
#60 = COORDINATED_UNIVERSAL_TIME_OFFSET ( 1, 0, .AHEAD. ) ;
#61 = DIRECTION ( 'NONE',  ( 1.000000000000000000, 0.000000000000000000, -0.000000000000000000 ) ) ;
#62 = CARTESIAN_POINT ( 'NONE',  ( -8.000000000000000000, 0.000000000000000000, 5.000000000000000000 ) ) ;
#63 = AXIS2_PLACEMENT_3D ( 'NONE', #101, #56, #233 ) ;
#64 = FACE_OUTER_BOUND ( 'NONE', #140, .T. ) ;
#65 = ORIENTED_EDGE ( 'NONE', *, *, #71, .F. ) ;
#66 = APPROVAL ( #86, 'NEURÈENÝ' ) ;
#67 = DIRECTION ( 'NONE',  ( -0.000000000000000000, -0.000000000000000000, -1.000000000000000000 ) ) ;
#68 = APPROVAL_PERSON_ORGANIZATION ( #155, #66, #129 ) ;
#69 = LINE ( 'NONE', #49, #201 ) ;
#70 = LINE ( 'NONE', #30, #85 ) ;
#71 = EDGE_CURVE ( 'NONE', #120, #186, #250, .T. ) ;
#72 = CC_DESIGN_PERSON_AND_ORGANIZATION_ASSIGNMENT ( #20, #162, ( #19 ) ) ;
#73 = DIRECTION ( 'NONE',  ( 0.000000000000000000, 0.000000000000000000, 1.000000000000000000 ) ) ;
#74 = AXIS2_PLACEMENT_3D ( 'NONE', #145, #124, #179 ) ;
#75 = CC_DESIGN_APPROVAL ( #104, ( #150 ) ) ;
#76 = EDGE_CURVE ( 'NONE', #10, #120, #18, .T. ) ;
#77 = COORDINATED_UNIVERSAL_TIME_OFFSET ( 1, 0, .AHEAD. ) ;
#78 = ORIENTED_EDGE ( 'NONE', *, *, #189, .T. ) ;
#79 = PLANE ( 'NONE',  #195 ) ;
#80 = ADVANCED_FACE ( 'NONE', ( #13 ), #36, .T. ) ;
#81 = DIRECTION ( 'NONE',  ( 1.000000000000000000, 0.000000000000000000, 0.000000000000000000 ) ) ;
#82 = VECTOR ( 'NONE', #143, 1000.000000000000000 ) ;
#83 = DATE_AND_TIME ( #205, #168 ) ;
#84 = CIRCLE ( 'NONE', #246, 8.000000000000000000 ) ;
#85 = VECTOR ( 'NONE', #67, 1000.000000000000000 ) ;
#86 = APPROVAL_STATUS ( 'not_yet_approved' ) ;
#87 = VERTEX_POINT ( 'NONE', #8 ) ;
#88 = DIRECTION ( 'NONE',  ( 1.000000000000000000, 0.000000000000000000, 0.000000000000000000 ) ) ;
#89 = DESIGN_CONTEXT ( 'detailed design', #172, 'design' ) ;
#90 = VECTOR ( 'NONE', #40, 1000.000000000000000 ) ;
#91 = PLANE ( 'NONE',  #53 ) ;
#92 = ORIENTED_EDGE ( 'NONE', *, *, #249, .T. ) ;
#93 = DIRECTION ( 'NONE',  ( 0.000000000000000000, 0.000000000000000000, 1.000000000000000000 ) ) ;
#94 = CIRCLE ( 'NONE', #157, 5.250000000000000000 ) ;
#95 = ORIENTED_EDGE ( 'NONE', *, *, #99, .F. ) ;
#96 = CARTESIAN_POINT ( 'NONE',  ( 0.000000000000000000, 0.000000000000000000, 5.000000000000000000 ) ) ;
#97 = APPLICATION_PROTOCOL_DEFINITION ( 'international standard', 'config_control_design', 1994, #172 ) ;
#98 = PRODUCT_DEFINITION_SHAPE ( 'NONE', 'NONE',  #150 ) ;
#99 = EDGE_CURVE ( 'NONE', #186, #134, #167, .T. ) ;
#100 = DIRECTION ( 'NONE',  ( -0.000000000000000000, -0.000000000000000000, -1.000000000000000000 ) ) ;
#101 = CARTESIAN_POINT ( 'NONE',  ( 0.000000000000000000, 0.000000000000000000, 0.000000000000000000 ) ) ;
#102 = LOCAL_TIME ( 14, 13, 5.000000000000000000, #118 ) ;
#103 = PLANE ( 'NONE',  #74 ) ;
#104 = APPROVAL ( #119, 'NEURÈENÝ' ) ;
#105 = PRODUCT_RELATED_PRODUCT_CATEGORY ( 'detail', '', ( #142 ) ) ;
#106 = CARTESIAN_POINT ( 'NONE',  ( 0.000000000000000000, 0.000000000000000000, 315.0000000000000000 ) ) ;
#107 = PERSON_AND_ORGANIZATION ( #254, #185 ) ;
#108 = FACE_OUTER_BOUND ( 'NONE', #112, .T. ) ;
#109 = CC_DESIGN_DATE_AND_TIME_ASSIGNMENT ( #203, #152, ( #228 ) ) ;
#110 = ORIENTED_EDGE ( 'NONE', *, *, #25, .T. ) ;
#111 = EDGE_LOOP ( 'NONE', ( #44, #225, #6, #110 ) ) ;
#112 = EDGE_LOOP ( 'NONE', ( #242, #31 ) ) ;
#113 = APPROVAL_DATE_TIME ( #83, #66 ) ;
#114 = EDGE_LOOP ( 'NONE', ( #149, #92, #78, #65 ) ) ;
#115 = EDGE_CURVE ( 'NONE', #87, #29, #174, .T. ) ;
#116 = CARTESIAN_POINT ( 'NONE',  ( 0.000000000000000000, 0.000000000000000000, 5.000000000000000000 ) ) ;
#117 = ADVANCED_BREP_SHAPE_REPRESENTATION ( '826d', ( #222, #63 ), #133 ) ;
#118 = COORDINATED_UNIVERSAL_TIME_OFFSET ( 1, 0, .AHEAD. ) ;
#119 = APPROVAL_STATUS ( 'not_yet_approved' ) ;
#120 = VERTEX_POINT ( 'NONE', #146 ) ;
#121 = CALENDAR_DATE ( 2023, 13, 2 ) ;
#122 = DIRECTION ( 'NONE',  ( -1.000000000000000000, 0.000000000000000000, 0.000000000000000000 ) ) ;
#123 = AXIS2_PLACEMENT_3D ( 'NONE', #5, #28, #166 ) ;
#124 = DIRECTION ( 'NONE',  ( 0.000000000000000000, 0.000000000000000000, 1.000000000000000000 ) ) ;
#125 = CARTESIAN_POINT ( 'NONE',  ( 0.000000000000000000, 0.000000000000000000, 0.000000000000000000 ) ) ;
#126 = SECURITY_CLASSIFICATION_LEVEL ( 'unclassified' ) ;
#127 = DIRECTION ( 'NONE',  ( -0.000000000000000000, -0.000000000000000000, -1.000000000000000000 ) ) ;
#128 = ORIENTED_EDGE ( 'NONE', *, *, #99, .T. ) ;
#129 = APPROVAL_ROLE ( '' ) ;
#130 = EDGE_LOOP ( 'NONE', ( #7, #234 ) ) ;
#131 = CC_DESIGN_PERSON_AND_ORGANIZATION_ASSIGNMENT ( #107, #169, ( #19 ) ) ;
#132 = CYLINDRICAL_SURFACE ( 'NONE', #123, 5.250000000000000000 ) ;
#133 =( GEOMETRIC_REPRESENTATION_CONTEXT ( 3 ) GLOBAL_UNCERTAINTY_ASSIGNED_CONTEXT ( ( #153 ) ) GLOBAL_UNIT_ASSIGNED_CONTEXT ( ( #46, #204, #26 ) ) REPRESENTATION_CONTEXT ( 'NONE', 'WORKASPACE' ) );
#134 = VERTEX_POINT ( 'NONE', #220 ) ;
#135 = AXIS2_PLACEMENT_3D ( 'NONE', #21, #224, #180 ) ;
#136 = PERSON_AND_ORGANIZATION_ROLE ( 'design_owner' ) ;
#137 = DIRECTION ( 'NONE',  ( 1.000000000000000000, 0.000000000000000000, 0.000000000000000000 ) ) ;
#138 = CARTESIAN_POINT ( 'NONE',  ( 0.000000000000000000, 0.000000000000000000, 0.000000000000000000 ) ) ;
#139 = CIRCLE ( 'NONE', #223, 8.000000000000000000 ) ;
#140 = EDGE_LOOP ( 'NONE', ( #147, #227 ) ) ;
#141 = AXIS2_PLACEMENT_3D ( 'NONE', #217, #202, #122 ) ;
#142 = PRODUCT ( '826d', '826d', '', ( #229 ) ) ;
#143 = DIRECTION ( 'NONE',  ( -0.000000000000000000, -0.000000000000000000, -1.000000000000000000 ) ) ;
#144 = EDGE_CURVE ( 'NONE', #22, #29, #14, .T. ) ;
#145 = CARTESIAN_POINT ( 'NONE',  ( 0.000000000000000000, 0.000000000000000000, 0.000000000000000000 ) ) ;
#146 = CARTESIAN_POINT ( 'NONE',  ( -5.250000000000000000, 0.000000000000000000, 315.0000000000000000 ) ) ;
#147 = ORIENTED_EDGE ( 'NONE', *, *, #25, .F. ) ;
#148 = APPROVAL_PERSON_ORGANIZATION ( #213, #104, #37 ) ;
#149 = ORIENTED_EDGE ( 'NONE', *, *, #76, .F. ) ;
#150 = PRODUCT_DEFINITION ( 'NEZNÁMÝ', '', #19, #89 ) ;
#151 = PERSON_AND_ORGANIZATION_ROLE ( 'classification_officer' ) ;
#152 = DATE_TIME_ROLE ( 'classification_date' ) ;
#153 = UNCERTAINTY_MEASURE_WITH_UNIT (LENGTH_MEASURE( 1.000000000000000082E-05 ), #46, 'distance_accuracy_value', 'NONE');
#154 = EDGE_LOOP ( 'NONE', ( #95, #196 ) ) ;
#155 = PERSON_AND_ORGANIZATION ( #254, #185 ) ;
#156 = DIRECTION ( 'NONE',  ( 0.000000000000000000, 0.000000000000000000, 1.000000000000000000 ) ) ;
#157 = AXIS2_PLACEMENT_3D ( 'NONE', #106, #206, #88 ) ;
#158 = DATE_AND_TIME ( #176, #209 ) ;
#159 = CARTESIAN_POINT ( 'NONE',  ( 5.250000000000000000, 6.429395695523604153E-16, 315.0000000000000000 ) ) ;
#160 = APPROVAL_DATE_TIME ( #38, #104 ) ;
#161 = DIRECTION ( 'NONE',  ( 0.000000000000000000, 0.000000000000000000, 1.000000000000000000 ) ) ;
#162 = PERSON_AND_ORGANIZATION_ROLE ( 'creator' ) ;
#163 = CC_DESIGN_SECURITY_CLASSIFICATION ( #228, ( #19 ) ) ;
#164 = APPLICATION_CONTEXT ( 'configuration controlled 3d designs of mechanical parts and assemblies' ) ;
#165 = CC_DESIGN_DATE_AND_TIME_ASSIGNMENT ( #158, #197, ( #150 ) ) ;
#166 = DIRECTION ( 'NONE',  ( -1.000000000000000000, 0.000000000000000000, 0.000000000000000000 ) ) ;
#167 = CIRCLE ( 'NONE', #237, 5.250000000000000000 ) ;
#168 = LOCAL_TIME ( 14, 13, 5.000000000000000000, #245 ) ;
#169 = PERSON_AND_ORGANIZATION_ROLE ( 'design_supplier' ) ;
#170 = FACE_OUTER_BOUND ( 'NONE', #171, .T. ) ;
#171 = EDGE_LOOP ( 'NONE', ( #190, #50, #24, #207 ) ) ;
#172 = APPLICATION_CONTEXT ( 'configuration controlled 3d designs of mechanical parts and assemblies' ) ;
#173 = CC_DESIGN_PERSON_AND_ORGANIZATION_ASSIGNMENT ( #184, #151, ( #228 ) ) ;
#174 = LINE ( 'NONE', #62, #90 ) ;
#175 = CIRCLE ( 'NONE', #41, 5.250000000000000000 ) ;
#176 = CALENDAR_DATE ( 2023, 13, 2 ) ;
#177 = CARTESIAN_POINT ( 'NONE',  ( -8.000000000000000000, 0.000000000000000000, 0.000000000000000000 ) ) ;
#178 = ADVANCED_FACE ( 'NONE', ( #42 ), #200, .T. ) ;
#179 = DIRECTION ( 'NONE',  ( 1.000000000000000000, 0.000000000000000000, -0.000000000000000000 ) ) ;
#180 = DIRECTION ( 'NONE',  ( -1.000000000000000000, 0.000000000000000000, 0.000000000000000000 ) ) ;
#181 = ORIENTED_EDGE ( 'NONE', *, *, #199, .F. ) ;
#182 = ADVANCED_FACE ( 'NONE', ( #64 ), #103, .F. ) ;
#183 = AXIS2_PLACEMENT_3D ( 'NONE', #125, #16, #1 ) ;
#184 = PERSON_AND_ORGANIZATION ( #254, #185 ) ;
#185 = ORGANIZATION ( 'NEURÈENÝ', 'NEURÈENÝ', '' ) ;
#186 = VERTEX_POINT ( 'NONE', #17 ) ;
#187 = ORIENTED_EDGE ( 'NONE', *, *, #249, .F. ) ;
#188 = DIRECTION ( 'NONE',  ( 0.000000000000000000, 0.000000000000000000, 1.000000000000000000 ) ) ;
#189 = EDGE_CURVE ( 'NONE', #134, #186, #175, .T. ) ;
#190 = ORIENTED_EDGE ( 'NONE', *, *, #47, .F. ) ;
#191 = DIRECTION ( 'NONE',  ( 1.000000000000000000, 0.000000000000000000, 0.000000000000000000 ) ) ;
#192 = CARTESIAN_POINT ( 'NONE',  ( 0.000000000000000000, 0.000000000000000000, 315.0000000000000000 ) ) ;
#193 = CC_DESIGN_PERSON_AND_ORGANIZATION_ASSIGNMENT ( #212, #136, ( #142 ) ) ;
#194 = CALENDAR_DATE ( 2023, 13, 2 ) ;
#195 = AXIS2_PLACEMENT_3D ( 'NONE', #96, #161, #61 ) ;
#196 = ORIENTED_EDGE ( 'NONE', *, *, #189, .F. ) ;
#197 = DATE_TIME_ROLE ( 'creation_date' ) ;
#198 = DIRECTION ( 'NONE',  ( 1.000000000000000000, 0.000000000000000000, 0.000000000000000000 ) ) ;
#199 = EDGE_CURVE ( 'NONE', #120, #10, #94, .T. ) ;
#200 = CYLINDRICAL_SURFACE ( 'NONE', #141, 8.000000000000000000 ) ;
#201 = VECTOR ( 'NONE', #127, 1000.000000000000000 ) ;
#202 = DIRECTION ( 'NONE',  ( -0.000000000000000000, -0.000000000000000000, -1.000000000000000000 ) ) ;
#203 = DATE_AND_TIME ( #240, #253 ) ;
#204 =( NAMED_UNIT ( * ) PLANE_ANGLE_UNIT ( ) SI_UNIT ( $, .RADIAN. ) );
#205 = CALENDAR_DATE ( 2023, 13, 2 ) ;
#206 = DIRECTION ( 'NONE',  ( 0.000000000000000000, 0.000000000000000000, 1.000000000000000000 ) ) ;
#207 = ORIENTED_EDGE ( 'NONE', *, *, #115, .F. ) ;
#208 = FACE_OUTER_BOUND ( 'NONE', #27, .T. ) ;
#209 = LOCAL_TIME ( 14, 13, 5.000000000000000000, #77 ) ;
#210 = ADVANCED_FACE ( 'NONE', ( #170 ), #239, .T. ) ;
#211 = DIRECTION ( 'NONE',  ( 0.000000000000000000, 0.000000000000000000, 1.000000000000000000 ) ) ;
#212 = PERSON_AND_ORGANIZATION ( #254, #185 ) ;
#213 = PERSON_AND_ORGANIZATION ( #254, #185 ) ;
#214 = CARTESIAN_POINT ( 'NONE',  ( 0.000000000000000000, 0.000000000000000000, 5.000000000000000000 ) ) ;
#215 = CARTESIAN_POINT ( 'NONE',  ( 0.000000000000000000, 0.000000000000000000, 315.0000000000000000 ) ) ;
#216 = APPROVAL_STATUS ( 'not_yet_approved' ) ;
#217 = CARTESIAN_POINT ( 'NONE',  ( 0.000000000000000000, 0.000000000000000000, 5.000000000000000000 ) ) ;
#218 = LOCAL_TIME ( 14, 13, 5.000000000000000000, #60 ) ;
#219 = ADVANCED_FACE ( 'NONE', ( #208 ), #132, .T. ) ;
#220 = CARTESIAN_POINT ( 'NONE',  ( 5.250000000000000000, 6.429395695523604153E-16, 5.000000000000000000 ) ) ;
#221 = APPROVAL_DATE_TIME ( #236, #45 ) ;
#222 = MANIFOLD_SOLID_BREP ( 'Pøidat vysunutím3', #243 ) ;
#223 = AXIS2_PLACEMENT_3D ( 'NONE', #138, #73, #57 ) ;
#224 = DIRECTION ( 'NONE',  ( -0.000000000000000000, -0.000000000000000000, -1.000000000000000000 ) ) ;
#225 = ORIENTED_EDGE ( 'NONE', *, *, #34, .F. ) ;
#226 = ORIENTED_EDGE ( 'NONE', *, *, #71, .T. ) ;
#227 = ORIENTED_EDGE ( 'NONE', *, *, #144, .F. ) ;
#228 = SECURITY_CLASSIFICATION ( '', '', #126 ) ;
#229 = MECHANICAL_CONTEXT ( 'NONE', #164, 'mechanical' ) ;
#230 = DIRECTION ( 'NONE',  ( 0.000000000000000000, 0.000000000000000000, 1.000000000000000000 ) ) ;
#231 = FACE_BOUND ( 'NONE', #154, .T. ) ;
#232 = EDGE_CURVE ( 'NONE', #3, #22, #69, .T. ) ;
#233 = DIRECTION ( 'NONE',  ( 1.000000000000000000, 0.000000000000000000, 0.000000000000000000 ) ) ;
#234 = ORIENTED_EDGE ( 'NONE', *, *, #47, .T. ) ;
#235 = ADVANCED_FACE ( 'NONE', ( #108 ), #91, .T. ) ;
#236 = DATE_AND_TIME ( #121, #218 ) ;
#237 = AXIS2_PLACEMENT_3D ( 'NONE', #35, #93, #191 ) ;
#238 = CC_DESIGN_APPROVAL ( #45, ( #19 ) ) ;
#239 = CYLINDRICAL_SURFACE ( 'NONE', #135, 8.000000000000000000 ) ;
#240 = CALENDAR_DATE ( 2023, 13, 2 ) ;
#241 = DIRECTION ( 'NONE',  ( 1.000000000000000000, 0.000000000000000000, -0.000000000000000000 ) ) ;
#242 = ORIENTED_EDGE ( 'NONE', *, *, #199, .T. ) ;
#243 = CLOSED_SHELL ( 'NONE', ( #80, #210, #178, #55, #182, #219, #235 ) ) ;
#244 = CARTESIAN_POINT ( 'NONE',  ( 0.000000000000000000, 0.000000000000000000, 315.0000000000000000 ) ) ;
#245 = COORDINATED_UNIVERSAL_TIME_OFFSET ( 1, 0, .AHEAD. ) ;
#246 = AXIS2_PLACEMENT_3D ( 'NONE', #116, #230, #137 ) ;
#247 = DIRECTION ( 'NONE',  ( 1.000000000000000000, 0.000000000000000000, 0.000000000000000000 ) ) ;
#248 = PERSON_AND_ORGANIZATION_ROLE ( 'creator' ) ;
#249 = EDGE_CURVE ( 'NONE', #10, #134, #70, .T. ) ;
#250 = LINE ( 'NONE', #59, #82 ) ;
#251 = APPROVAL_ROLE ( '' ) ;
#252 = AXIS2_PLACEMENT_3D ( 'NONE', #214, #211, #247 ) ;
#253 = LOCAL_TIME ( 14, 13, 5.000000000000000000, #2 ) ;
#254 = PERSON ( 'NEURÈENÝ', 'NEURÈENÝ', 'NEURÈENÝ', ('NEURÈENÝ'), ('NEURÈENÝ'), ('NEURÈENÝ') ) ;
#255 = CARTESIAN_POINT ( 'NONE',  ( 0.000000000000000000, 0.000000000000000000, 5.000000000000000000 ) ) ;
ENDSEC;
END-ISO-10303-21;
