ISO-10303-21;
HEADER;
FILE_DESCRIPTION (( 'STEP AP203' ),
    '1' );
FILE_NAME ('1955.STEP',
    '2023-02-13T11:36:48',
    ( '' ),
    ( '' ),
    'SwSTEP 2.0',
    'SolidWorks 2019',
    '' );
FILE_SCHEMA (( 'CONFIG_CONTROL_DESIGN' ));
ENDSEC;

DATA;
#1 = DIRECTION ( 'NONE',  ( 0.000000000000000000, 0.000000000000000000, 1.000000000000000000 ) ) ;
#2 = CARTESIAN_POINT ( 'NONE',  ( 0.000000000000000000, 0.000000000000000000, 100.0000000000000000 ) ) ;
#3 = AXIS2_PLACEMENT_3D ( 'NONE', #2, #48, #232 ) ;
#4 = CLOSED_SHELL ( 'NONE', ( #164, #208, #240, #47, #166, #52, #190 ) ) ;
#5 = APPROVAL_DATE_TIME ( #91, #6 ) ;
#6 = APPROVAL ( #31, 'NEURÈENÝ' ) ;
#7 = PERSON_AND_ORGANIZATION_ROLE ( 'creator' ) ;
#8 = PERSON_AND_ORGANIZATION ( #104, #146 ) ;
#9 = PERSON_AND_ORGANIZATION ( #104, #146 ) ;
#10 = CALENDAR_DATE ( 2023, 13, 2 ) ;
#11 = ORIENTED_EDGE ( 'NONE', *, *, #105, .T. ) ;
#12 = CARTESIAN_POINT ( 'NONE',  ( 11.00000000000000000, 1.347111479062088405E-15, 7.000000000000000000 ) ) ;
#13 = EDGE_LOOP ( 'NONE', ( #55, #142, #206, #84 ) ) ;
#14 = CIRCLE ( 'NONE', #155, 6.500000000000000888 ) ;
#15 = CC_DESIGN_APPROVAL ( #75, ( #86 ) ) ;
#16 = DIRECTION ( 'NONE',  ( 0.000000000000000000, 0.000000000000000000, 1.000000000000000000 ) ) ;
#17 = ORIENTED_EDGE ( 'NONE', *, *, #180, .T. ) ;
#18 = FACE_OUTER_BOUND ( 'NONE', #209, .T. ) ;
#19 = DIRECTION ( 'NONE',  ( 0.000000000000000000, 0.000000000000000000, 1.000000000000000000 ) ) ;
#20 = EDGE_LOOP ( 'NONE', ( #95, #123 ) ) ;
#21 = EDGE_CURVE ( 'NONE', #189, #59, #178, .T. ) ;
#22 =( NAMED_UNIT ( * ) SI_UNIT ( $, .STERADIAN. ) SOLID_ANGLE_UNIT ( ) );
#23 = DIRECTION ( 'NONE',  ( 0.000000000000000000, 0.000000000000000000, 1.000000000000000000 ) ) ;
#24 = LINE ( 'NONE', #81, #149 ) ;
#25 = DIRECTION ( 'NONE',  ( -0.000000000000000000, -0.000000000000000000, -1.000000000000000000 ) ) ;
#26 =( GEOMETRIC_REPRESENTATION_CONTEXT ( 3 ) GLOBAL_UNCERTAINTY_ASSIGNED_CONTEXT ( ( #244 ) ) GLOBAL_UNIT_ASSIGNED_CONTEXT ( ( #255, #126, #22 ) ) REPRESENTATION_CONTEXT ( 'NONE', 'WORKASPACE' ) );
#27 = CC_DESIGN_DATE_AND_TIME_ASSIGNMENT ( #137, #134, ( #86 ) ) ;
#28 = APPROVAL_ROLE ( '' ) ;
#29 = CALENDAR_DATE ( 2023, 13, 2 ) ;
#30 = COORDINATED_UNIVERSAL_TIME_OFFSET ( 1, 0, .AHEAD. ) ;
#31 = APPROVAL_STATUS ( 'not_yet_approved' ) ;
#32 = ORIENTED_EDGE ( 'NONE', *, *, #202, .T. ) ;
#33 = CARTESIAN_POINT ( 'NONE',  ( 0.000000000000000000, 0.000000000000000000, 7.000000000000000000 ) ) ;
#34 = ORIENTED_EDGE ( 'NONE', *, *, #98, .T. ) ;
#35 = DIRECTION ( 'NONE',  ( 1.000000000000000000, 0.000000000000000000, 0.000000000000000000 ) ) ;
#36 = ORIENTED_EDGE ( 'NONE', *, *, #175, .F. ) ;
#37 = CIRCLE ( 'NONE', #57, 11.00000000000000000 ) ;
#38 = ORIENTED_EDGE ( 'NONE', *, *, #120, .T. ) ;
#39 = LINE ( 'NONE', #191, #102 ) ;
#40 = CYLINDRICAL_SURFACE ( 'NONE', #252, 11.00000000000000000 ) ;
#41 = CARTESIAN_POINT ( 'NONE',  ( 0.000000000000000000, 0.000000000000000000, 7.000000000000000000 ) ) ;
#42 = LINE ( 'NONE', #154, #70 ) ;
#43 = CYLINDRICAL_SURFACE ( 'NONE', #46, 6.500000000000000888 ) ;
#44 = CC_DESIGN_PERSON_AND_ORGANIZATION_ASSIGNMENT ( #8, #200, ( #78 ) ) ;
#45 = PRODUCT_DEFINITION_SHAPE ( 'NONE', 'NONE',  #86 ) ;
#46 = AXIS2_PLACEMENT_3D ( 'NONE', #253, #174, #211 ) ;
#47 = ADVANCED_FACE ( 'NONE', ( #251, #212 ), #235, .T. ) ;
#48 = DIRECTION ( 'NONE',  ( 0.000000000000000000, 0.000000000000000000, 1.000000000000000000 ) ) ;
#49 = DATE_AND_TIME ( #29, #124 ) ;
#50 = CIRCLE ( 'NONE', #184, 11.00000000000000000 ) ;
#51 = CALENDAR_DATE ( 2023, 13, 2 ) ;
#52 = ADVANCED_FACE ( 'NONE', ( #127 ), #43, .T. ) ;
#53 = APPROVAL_ROLE ( '' ) ;
#54 = LOCAL_TIME ( 12, 36, 48.00000000000000000, #30 ) ;
#55 = ORIENTED_EDGE ( 'NONE', *, *, #98, .F. ) ;
#56 = ORIENTED_EDGE ( 'NONE', *, *, #132, .F. ) ;
#57 = AXIS2_PLACEMENT_3D ( 'NONE', #225, #246, #77 ) ;
#58 = FACE_OUTER_BOUND ( 'NONE', #140, .T. ) ;
#59 = VERTEX_POINT ( 'NONE', #157 ) ;
#60 = CARTESIAN_POINT ( 'NONE',  ( -11.00000000000000000, 0.000000000000000000, 7.000000000000000000 ) ) ;
#61 = DIRECTION ( 'NONE',  ( -0.000000000000000000, -0.000000000000000000, -1.000000000000000000 ) ) ;
#62 = AXIS2_PLACEMENT_3D ( 'NONE', #103, #87, #236 ) ;
#63 = CARTESIAN_POINT ( 'NONE',  ( -6.500000000000000888, 0.000000000000000000, 7.000000000000000000 ) ) ;
#64 = CC_DESIGN_APPROVAL ( #201, ( #68 ) ) ;
#65 = CYLINDRICAL_SURFACE ( 'NONE', #219, 11.00000000000000000 ) ;
#66 = CARTESIAN_POINT ( 'NONE',  ( -6.500000000000000888, 0.000000000000000000, 100.0000000000000000 ) ) ;
#67 = DIRECTION ( 'NONE',  ( -1.000000000000000000, 0.000000000000000000, 0.000000000000000000 ) ) ;
#68 = PRODUCT_DEFINITION_FORMATION_WITH_SPECIFIED_SOURCE ( 'LIBOVOLNÝ', '', #78, .NOT_KNOWN. ) ;
#69 = VERTEX_POINT ( 'NONE', #60 ) ;
#70 = VECTOR ( 'NONE', #61, 1000.000000000000000 ) ;
#71 = AXIS2_PLACEMENT_3D ( 'NONE', #228, #19, #80 ) ;
#72 = APPROVAL_DATE_TIME ( #220, #75 ) ;
#73 = PERSON_AND_ORGANIZATION ( #104, #146 ) ;
#74 = MANIFOLD_SOLID_BREP ( 'Pøidat vysunutím3', #4 ) ;
#75 = APPROVAL ( #90, 'NEURÈENÝ' ) ;
#76 = ORIENTED_EDGE ( 'NONE', *, *, #120, .F. ) ;
#77 = DIRECTION ( 'NONE',  ( 1.000000000000000000, 0.000000000000000000, 0.000000000000000000 ) ) ;
#78 = PRODUCT ( '1955', '1955', '', ( #234 ) ) ;
#79 = AXIS2_PLACEMENT_3D ( 'NONE', #153, #207, #35 ) ;
#80 = DIRECTION ( 'NONE',  ( 1.000000000000000000, 0.000000000000000000, -0.000000000000000000 ) ) ;
#81 = CARTESIAN_POINT ( 'NONE',  ( -11.00000000000000000, 0.000000000000000000, 7.000000000000000000 ) ) ;
#82 = DIRECTION ( 'NONE',  ( 0.000000000000000000, 0.000000000000000000, 1.000000000000000000 ) ) ;
#83 = DIRECTION ( 'NONE',  ( -1.000000000000000000, 0.000000000000000000, 0.000000000000000000 ) ) ;
#84 = ORIENTED_EDGE ( 'NONE', *, *, #116, .T. ) ;
#85 = APPLICATION_PROTOCOL_DEFINITION ( 'international standard', 'config_control_design', 1994, #230 ) ;
#86 = PRODUCT_DEFINITION ( 'NEZNÁMÝ', '', #68, #136 ) ;
#87 = DIRECTION ( 'NONE',  ( 0.000000000000000000, 0.000000000000000000, 1.000000000000000000 ) ) ;
#88 = PERSON_AND_ORGANIZATION ( #104, #146 ) ;
#89 = LOCAL_TIME ( 12, 36, 48.00000000000000000, #186 ) ;
#90 = APPROVAL_STATUS ( 'not_yet_approved' ) ;
#91 = DATE_AND_TIME ( #10, #89 ) ;
#92 = VERTEX_POINT ( 'NONE', #99 ) ;
#93 = CC_DESIGN_PERSON_AND_ORGANIZATION_ASSIGNMENT ( #148, #131, ( #110 ) ) ;
#94 = FACE_OUTER_BOUND ( 'NONE', #158, .T. ) ;
#95 = ORIENTED_EDGE ( 'NONE', *, *, #116, .F. ) ;
#96 = CARTESIAN_POINT ( 'NONE',  ( 0.000000000000000000, 0.000000000000000000, 0.000000000000000000 ) ) ;
#97 = CIRCLE ( 'NONE', #79, 11.00000000000000000 ) ;
#98 = EDGE_CURVE ( 'NONE', #92, #150, #42, .T. ) ;
#99 = CARTESIAN_POINT ( 'NONE',  ( 6.500000000000000888, 7.960204194457794491E-16, 100.0000000000000000 ) ) ;
#100 = DIRECTION ( 'NONE',  ( 0.000000000000000000, 0.000000000000000000, 1.000000000000000000 ) ) ;
#101 = CARTESIAN_POINT ( 'NONE',  ( 11.00000000000000000, 1.347111479062088405E-15, 7.000000000000000000 ) ) ;
#102 = VECTOR ( 'NONE', #138, 1000.000000000000000 ) ;
#103 = CARTESIAN_POINT ( 'NONE',  ( 0.000000000000000000, 0.000000000000000000, 0.000000000000000000 ) ) ;
#104 = PERSON ( 'NEURÈENÝ', 'NEURÈENÝ', 'NEURÈENÝ', ('NEURÈENÝ'), ('NEURÈENÝ'), ('NEURÈENÝ') ) ;
#105 = EDGE_CURVE ( 'NONE', #150, #226, #14, .T. ) ;
#106 = PERSON_AND_ORGANIZATION_ROLE ( 'creator' ) ;
#107 = CIRCLE ( 'NONE', #156, 6.500000000000000888 ) ;
#108 = APPROVAL_STATUS ( 'not_yet_approved' ) ;
#109 = AXIS2_PLACEMENT_3D ( 'NONE', #96, #114, #170 ) ;
#110 = SECURITY_CLASSIFICATION ( '', '', #239 ) ;
#111 = APPROVAL_ROLE ( '' ) ;
#112 = CC_DESIGN_DATE_AND_TIME_ASSIGNMENT ( #241, #218, ( #110 ) ) ;
#113 = VERTEX_POINT ( 'NONE', #66 ) ;
#114 = DIRECTION ( 'NONE',  ( 0.000000000000000000, 0.000000000000000000, 1.000000000000000000 ) ) ;
#115 = EDGE_LOOP ( 'NONE', ( #76, #194, #231, #56 ) ) ;
#116 = EDGE_CURVE ( 'NONE', #226, #150, #130, .T. ) ;
#117 = CYLINDRICAL_SURFACE ( 'NONE', #247, 6.500000000000000888 ) ;
#118 = AXIS2_PLACEMENT_3D ( 'NONE', #33, #16, #122 ) ;
#119 = ORIENTED_EDGE ( 'NONE', *, *, #180, .F. ) ;
#120 = EDGE_CURVE ( 'NONE', #189, #69, #50, .T. ) ;
#121 = CC_DESIGN_PERSON_AND_ORGANIZATION_ASSIGNMENT ( #160, #163, ( #68 ) ) ;
#122 = DIRECTION ( 'NONE',  ( 1.000000000000000000, 0.000000000000000000, 0.000000000000000000 ) ) ;
#123 = ORIENTED_EDGE ( 'NONE', *, *, #105, .F. ) ;
#124 = LOCAL_TIME ( 12, 36, 48.00000000000000000, #182 ) ;
#125 = CARTESIAN_POINT ( 'NONE',  ( 0.000000000000000000, 0.000000000000000000, 7.000000000000000000 ) ) ;
#126 =( NAMED_UNIT ( * ) PLANE_ANGLE_UNIT ( ) SI_UNIT ( $, .RADIAN. ) );
#127 = FACE_OUTER_BOUND ( 'NONE', #13, .T. ) ;
#128 = CARTESIAN_POINT ( 'NONE',  ( 0.000000000000000000, 0.000000000000000000, 7.000000000000000000 ) ) ;
#129 = CARTESIAN_POINT ( 'NONE',  ( 0.000000000000000000, 0.000000000000000000, 7.000000000000000000 ) ) ;
#130 = CIRCLE ( 'NONE', #227, 6.500000000000000888 ) ;
#131 = PERSON_AND_ORGANIZATION_ROLE ( 'classification_officer' ) ;
#132 = EDGE_CURVE ( 'NONE', #69, #188, #24, .T. ) ;
#133 = PERSON_AND_ORGANIZATION ( #104, #146 ) ;
#134 = DATE_TIME_ROLE ( 'creation_date' ) ;
#135 = APPLICATION_PROTOCOL_DEFINITION ( 'international standard', 'config_control_design', 1994, #254 ) ;
#136 = DESIGN_CONTEXT ( 'detailed design', #254, 'design' ) ;
#137 = DATE_AND_TIME ( #51, #54 ) ;
#138 = DIRECTION ( 'NONE',  ( -0.000000000000000000, -0.000000000000000000, -1.000000000000000000 ) ) ;
#139 = ORIENTED_EDGE ( 'NONE', *, *, #141, .F. ) ;
#140 = EDGE_LOOP ( 'NONE', ( #224, #34, #11, #139 ) ) ;
#141 = EDGE_CURVE ( 'NONE', #113, #226, #39, .T. ) ;
#142 = ORIENTED_EDGE ( 'NONE', *, *, #223, .F. ) ;
#143 = CARTESIAN_POINT ( 'NONE',  ( 0.000000000000000000, 0.000000000000000000, 7.000000000000000000 ) ) ;
#144 = ORIENTED_EDGE ( 'NONE', *, *, #175, .T. ) ;
#145 = COORDINATED_UNIVERSAL_TIME_OFFSET ( 1, 0, .AHEAD. ) ;
#146 = ORGANIZATION ( 'NEURÈENÝ', 'NEURÈENÝ', '' ) ;
#147 = CC_DESIGN_SECURITY_CLASSIFICATION ( #110, ( #68 ) ) ;
#148 = PERSON_AND_ORGANIZATION ( #104, #146 ) ;
#149 = VECTOR ( 'NONE', #171, 1000.000000000000000 ) ;
#150 = VERTEX_POINT ( 'NONE', #249 ) ;
#151 = DIRECTION ( 'NONE',  ( -0.000000000000000000, -0.000000000000000000, -1.000000000000000000 ) ) ;
#152 = CARTESIAN_POINT ( 'NONE',  ( 0.000000000000000000, 0.000000000000000000, 100.0000000000000000 ) ) ;
#153 = CARTESIAN_POINT ( 'NONE',  ( 0.000000000000000000, 0.000000000000000000, 0.000000000000000000 ) ) ;
#154 = CARTESIAN_POINT ( 'NONE',  ( 6.500000000000000888, 7.960204194457794491E-16, 100.0000000000000000 ) ) ;
#155 = AXIS2_PLACEMENT_3D ( 'NONE', #41, #82, #233 ) ;
#156 = AXIS2_PLACEMENT_3D ( 'NONE', #152, #23, #198 ) ;
#157 = CARTESIAN_POINT ( 'NONE',  ( 11.00000000000000000, 1.347111479062088405E-15, 0.000000000000000000 ) ) ;
#158 = EDGE_LOOP ( 'NONE', ( #187, #32 ) ) ;
#159 = CC_DESIGN_PERSON_AND_ORGANIZATION_ASSIGNMENT ( #88, #106, ( #68 ) ) ;
#160 = PERSON_AND_ORGANIZATION ( #104, #146 ) ;
#161 = EDGE_CURVE ( 'NONE', #59, #188, #97, .T. ) ;
#162 = APPROVAL_PERSON_ORGANIZATION ( #73, #6, #111 ) ;
#163 = PERSON_AND_ORGANIZATION_ROLE ( 'design_supplier' ) ;
#164 = ADVANCED_FACE ( 'NONE', ( #58 ), #117, .T. ) ;
#165 = SHAPE_DEFINITION_REPRESENTATION ( #45, #205 ) ;
#166 = ADVANCED_FACE ( 'NONE', ( #18 ), #173, .F. ) ;
#167 = APPROVAL_PERSON_ORGANIZATION ( #9, #75, #53 ) ;
#168 = PRODUCT_RELATED_PRODUCT_CATEGORY ( 'detail', '', ( #78 ) ) ;
#169 = EDGE_LOOP ( 'NONE', ( #213, #36, #245, #17 ) ) ;
#170 = DIRECTION ( 'NONE',  ( 1.000000000000000000, 0.000000000000000000, -0.000000000000000000 ) ) ;
#171 = DIRECTION ( 'NONE',  ( -0.000000000000000000, -0.000000000000000000, -1.000000000000000000 ) ) ;
#172 = CIRCLE ( 'NONE', #118, 11.00000000000000000 ) ;
#173 = PLANE ( 'NONE',  #109 ) ;
#174 = DIRECTION ( 'NONE',  ( -0.000000000000000000, -0.000000000000000000, -1.000000000000000000 ) ) ;
#175 = EDGE_CURVE ( 'NONE', #69, #189, #172, .T. ) ;
#176 = DIRECTION ( 'NONE',  ( -0.000000000000000000, -0.000000000000000000, -1.000000000000000000 ) ) ;
#177 = DIRECTION ( 'NONE',  ( 1.000000000000000000, 0.000000000000000000, 0.000000000000000000 ) ) ;
#178 = LINE ( 'NONE', #101, #197 ) ;
#179 = FACE_OUTER_BOUND ( 'NONE', #169, .T. ) ;
#180 = EDGE_CURVE ( 'NONE', #188, #59, #37, .T. ) ;
#181 = CALENDAR_DATE ( 2023, 13, 2 ) ;
#182 = COORDINATED_UNIVERSAL_TIME_OFFSET ( 1, 0, .AHEAD. ) ;
#183 = APPROVAL_DATE_TIME ( #49, #201 ) ;
#184 = AXIS2_PLACEMENT_3D ( 'NONE', #129, #196, #177 ) ;
#185 = APPROVAL_PERSON_ORGANIZATION ( #133, #201, #28 ) ;
#186 = COORDINATED_UNIVERSAL_TIME_OFFSET ( 1, 0, .AHEAD. ) ;
#187 = ORIENTED_EDGE ( 'NONE', *, *, #223, .T. ) ;
#188 = VERTEX_POINT ( 'NONE', #243 ) ;
#189 = VERTEX_POINT ( 'NONE', #12 ) ;
#190 = ADVANCED_FACE ( 'NONE', ( #94 ), #192, .T. ) ;
#191 = CARTESIAN_POINT ( 'NONE',  ( -6.500000000000000888, 0.000000000000000000, 100.0000000000000000 ) ) ;
#192 = PLANE ( 'NONE',  #71 ) ;
#193 = EDGE_LOOP ( 'NONE', ( #144, #38 ) ) ;
#194 = ORIENTED_EDGE ( 'NONE', *, *, #21, .T. ) ;
#195 = DIRECTION ( 'NONE',  ( 1.000000000000000000, 0.000000000000000000, 0.000000000000000000 ) ) ;
#196 = DIRECTION ( 'NONE',  ( 0.000000000000000000, 0.000000000000000000, 1.000000000000000000 ) ) ;
#197 = VECTOR ( 'NONE', #250, 1000.000000000000000 ) ;
#198 = DIRECTION ( 'NONE',  ( 1.000000000000000000, 0.000000000000000000, 0.000000000000000000 ) ) ;
#199 = LOCAL_TIME ( 12, 36, 48.00000000000000000, #145 ) ;
#200 = PERSON_AND_ORGANIZATION_ROLE ( 'design_owner' ) ;
#201 = APPROVAL ( #108, 'NEURÈENÝ' ) ;
#202 = EDGE_CURVE ( 'NONE', #92, #113, #107, .T. ) ;
#203 = COORDINATED_UNIVERSAL_TIME_OFFSET ( 1, 0, .AHEAD. ) ;
#204 = ORIENTED_EDGE ( 'NONE', *, *, #161, .F. ) ;
#205 = ADVANCED_BREP_SHAPE_REPRESENTATION ( '1955', ( #74, #62 ), #26 ) ;
#206 = ORIENTED_EDGE ( 'NONE', *, *, #141, .T. ) ;
#207 = DIRECTION ( 'NONE',  ( 0.000000000000000000, 0.000000000000000000, 1.000000000000000000 ) ) ;
#208 = ADVANCED_FACE ( 'NONE', ( #217 ), #40, .T. ) ;
#209 = EDGE_LOOP ( 'NONE', ( #119, #204 ) ) ;
#210 = DIRECTION ( 'NONE',  ( -1.000000000000000000, 0.000000000000000000, 0.000000000000000000 ) ) ;
#211 = DIRECTION ( 'NONE',  ( -1.000000000000000000, 0.000000000000000000, 0.000000000000000000 ) ) ;
#212 = FACE_OUTER_BOUND ( 'NONE', #193, .T. ) ;
#213 = ORIENTED_EDGE ( 'NONE', *, *, #21, .F. ) ;
#214 = CARTESIAN_POINT ( 'NONE',  ( 0.000000000000000000, 0.000000000000000000, 7.000000000000000000 ) ) ;
#215 = DIRECTION ( 'NONE',  ( 1.000000000000000000, 0.000000000000000000, -0.000000000000000000 ) ) ;
#216 = LOCAL_TIME ( 12, 36, 48.00000000000000000, #203 ) ;
#217 = FACE_OUTER_BOUND ( 'NONE', #115, .T. ) ;
#218 = DATE_TIME_ROLE ( 'classification_date' ) ;
#219 = AXIS2_PLACEMENT_3D ( 'NONE', #128, #25, #67 ) ;
#220 = DATE_AND_TIME ( #181, #199 ) ;
#221 = CALENDAR_DATE ( 2023, 13, 2 ) ;
#222 = CIRCLE ( 'NONE', #3, 6.500000000000000888 ) ;
#223 = EDGE_CURVE ( 'NONE', #113, #92, #222, .T. ) ;
#224 = ORIENTED_EDGE ( 'NONE', *, *, #202, .F. ) ;
#225 = CARTESIAN_POINT ( 'NONE',  ( 0.000000000000000000, 0.000000000000000000, 0.000000000000000000 ) ) ;
#226 = VERTEX_POINT ( 'NONE', #63 ) ;
#227 = AXIS2_PLACEMENT_3D ( 'NONE', #125, #100, #195 ) ;
#228 = CARTESIAN_POINT ( 'NONE',  ( 0.000000000000000000, 0.000000000000000000, 100.0000000000000000 ) ) ;
#229 = CC_DESIGN_APPROVAL ( #6, ( #110 ) ) ;
#230 = APPLICATION_CONTEXT ( 'configuration controlled 3d designs of mechanical parts and assemblies' ) ;
#231 = ORIENTED_EDGE ( 'NONE', *, *, #161, .T. ) ;
#232 = DIRECTION ( 'NONE',  ( 1.000000000000000000, 0.000000000000000000, 0.000000000000000000 ) ) ;
#233 = DIRECTION ( 'NONE',  ( 1.000000000000000000, 0.000000000000000000, 0.000000000000000000 ) ) ;
#234 = MECHANICAL_CONTEXT ( 'NONE', #230, 'mechanical' ) ;
#235 = PLANE ( 'NONE',  #242 ) ;
#236 = DIRECTION ( 'NONE',  ( 1.000000000000000000, 0.000000000000000000, 0.000000000000000000 ) ) ;
#237 = PERSON_AND_ORGANIZATION ( #104, #146 ) ;
#238 = CC_DESIGN_PERSON_AND_ORGANIZATION_ASSIGNMENT ( #237, #7, ( #86 ) ) ;
#239 = SECURITY_CLASSIFICATION_LEVEL ( 'unclassified' ) ;
#240 = ADVANCED_FACE ( 'NONE', ( #179 ), #65, .T. ) ;
#241 = DATE_AND_TIME ( #221, #216 ) ;
#242 = AXIS2_PLACEMENT_3D ( 'NONE', #143, #1, #215 ) ;
#243 = CARTESIAN_POINT ( 'NONE',  ( -11.00000000000000000, 0.000000000000000000, 0.000000000000000000 ) ) ;
#244 = UNCERTAINTY_MEASURE_WITH_UNIT (LENGTH_MEASURE( 1.000000000000000082E-05 ), #255, 'distance_accuracy_value', 'NONE');
#245 = ORIENTED_EDGE ( 'NONE', *, *, #132, .T. ) ;
#246 = DIRECTION ( 'NONE',  ( 0.000000000000000000, 0.000000000000000000, 1.000000000000000000 ) ) ;
#247 = AXIS2_PLACEMENT_3D ( 'NONE', #248, #151, #210 ) ;
#248 = CARTESIAN_POINT ( 'NONE',  ( 0.000000000000000000, 0.000000000000000000, 100.0000000000000000 ) ) ;
#249 = CARTESIAN_POINT ( 'NONE',  ( 6.500000000000000888, 7.960204194457794491E-16, 7.000000000000000000 ) ) ;
#250 = DIRECTION ( 'NONE',  ( -0.000000000000000000, -0.000000000000000000, -1.000000000000000000 ) ) ;
#251 = FACE_BOUND ( 'NONE', #20, .T. ) ;
#252 = AXIS2_PLACEMENT_3D ( 'NONE', #214, #176, #83 ) ;
#253 = CARTESIAN_POINT ( 'NONE',  ( 0.000000000000000000, 0.000000000000000000, 100.0000000000000000 ) ) ;
#254 = APPLICATION_CONTEXT ( 'configuration controlled 3d designs of mechanical parts and assemblies' ) ;
#255 =( LENGTH_UNIT ( ) NAMED_UNIT ( * ) SI_UNIT ( .MILLI., .METRE. ) );
ENDSEC;
END-ISO-10303-21;
