ISO-10303-21;
HEADER;
FILE_DESCRIPTION (( 'STEP AP203' ),
    '1' );
FILE_NAME ('7238.STEP',
    '2022-07-07T17:14:25',
    ( '' ),
    ( '' ),
    'SwSTEP 2.0',
    'SolidWorks 2019',
    '' );
FILE_SCHEMA (( 'CONFIG_CONTROL_DESIGN' ));
ENDSEC;

DATA;
#1 = ORIENTED_EDGE ( 'NONE', *, *, #178, .F. ) ;
#2 = EDGE_LOOP ( 'NONE', ( #53, #21, #237, #119 ) ) ;
#3 = CIRCLE ( 'NONE', #154, 6.750000000000000000 ) ;
#4 = DIRECTION ( 'NONE',  ( 1.000000000000000000, 0.000000000000000000, 0.000000000000000000 ) ) ;
#5 = ORIENTED_EDGE ( 'NONE', *, *, #175, .F. ) ;
#6 = CARTESIAN_POINT ( 'NONE',  ( 0.000000000000000000, 0.000000000000000000, 7.000000000000000000 ) ) ;
#7 = PRODUCT_DEFINITION ( 'NEZNÁMÝ', '', #233, #124 ) ;
#8 = CARTESIAN_POINT ( 'NONE',  ( 0.000000000000000000, 0.000000000000000000, 507.0000000000000000 ) ) ;
#9 = DIRECTION ( 'NONE',  ( 1.000000000000000000, 0.000000000000000000, 0.000000000000000000 ) ) ;
#10 = CC_DESIGN_PERSON_AND_ORGANIZATION_ASSIGNMENT ( #208, #234, ( #233 ) ) ;
#11 = CARTESIAN_POINT ( 'NONE',  ( -11.00000000000000000, 0.000000000000000000, 7.000000000000000000 ) ) ;
#12 = DIRECTION ( 'NONE',  ( -0.000000000000000000, -0.000000000000000000, -1.000000000000000000 ) ) ;
#13 = DIRECTION ( 'NONE',  ( -0.000000000000000000, -0.000000000000000000, -1.000000000000000000 ) ) ;
#14 = APPROVAL_ROLE ( '' ) ;
#15 = CC_DESIGN_APPROVAL ( #143, ( #233 ) ) ;
#16 = PERSON_AND_ORGANIZATION_ROLE ( 'classification_officer' ) ;
#17 = AXIS2_PLACEMENT_3D ( 'NONE', #241, #104, #160 ) ;
#18 = APPLICATION_PROTOCOL_DEFINITION ( 'international standard', 'config_control_design', 1994, #105 ) ;
#19 = ADVANCED_FACE ( 'NONE', ( #186 ), #228, .T. ) ;
#20 = ORIENTED_EDGE ( 'NONE', *, *, #170, .T. ) ;
#21 = ORIENTED_EDGE ( 'NONE', *, *, #71, .F. ) ;
#22 = EDGE_CURVE ( 'NONE', #49, #179, #52, .T. ) ;
#23 = EDGE_LOOP ( 'NONE', ( #133, #95, #164, #94 ) ) ;
#24 =( LENGTH_UNIT ( ) NAMED_UNIT ( * ) SI_UNIT ( .MILLI., .METRE. ) );
#25 = EDGE_LOOP ( 'NONE', ( #118, #230, #103, #200 ) ) ;
#26 = CIRCLE ( 'NONE', #171, 6.750000000000000000 ) ;
#27 = DIRECTION ( 'NONE',  ( 1.000000000000000000, 0.000000000000000000, 0.000000000000000000 ) ) ;
#28 = CARTESIAN_POINT ( 'NONE',  ( 0.000000000000000000, 0.000000000000000000, 507.0000000000000000 ) ) ;
#29 = CARTESIAN_POINT ( 'NONE',  ( 11.00000000000000000, 1.347111479062088405E-15, 7.000000000000000000 ) ) ;
#30 = APPROVAL_PERSON_ORGANIZATION ( #131, #143, #14 ) ;
#31 = CC_DESIGN_DATE_AND_TIME_ASSIGNMENT ( #68, #169, ( #211 ) ) ;
#32 = DIRECTION ( 'NONE',  ( 1.000000000000000000, 0.000000000000000000, 0.000000000000000000 ) ) ;
#33 = DIRECTION ( 'NONE',  ( 1.000000000000000000, 0.000000000000000000, 0.000000000000000000 ) ) ;
#34 = EDGE_LOOP ( 'NONE', ( #59, #182 ) ) ;
#35 = APPROVAL_STATUS ( 'not_yet_approved' ) ;
#36 = CARTESIAN_POINT ( 'NONE',  ( 6.750000000000000000, 8.266365894244634333E-16, 507.0000000000000000 ) ) ;
#37 = APPROVAL_DATE_TIME ( #212, #225 ) ;
#38 = CALENDAR_DATE ( 2022, 7, 7 ) ;
#39 = PERSON_AND_ORGANIZATION_ROLE ( 'design_supplier' ) ;
#40 = CIRCLE ( 'NONE', #78, 6.750000000000000000 ) ;
#41 = VERTEX_POINT ( 'NONE', #205 ) ;
#42 = VERTEX_POINT ( 'NONE', #151 ) ;
#43 = DIRECTION ( 'NONE',  ( 0.000000000000000000, 0.000000000000000000, 1.000000000000000000 ) ) ;
#44 = ORIENTED_EDGE ( 'NONE', *, *, #249, .F. ) ;
#45 = DIRECTION ( 'NONE',  ( -1.000000000000000000, 0.000000000000000000, 0.000000000000000000 ) ) ;
#46 = FACE_OUTER_BOUND ( 'NONE', #195, .T. ) ;
#47 = PLANE ( 'NONE',  #161 ) ;
#48 = APPLICATION_PROTOCOL_DEFINITION ( 'international standard', 'config_control_design', 1994, #247 ) ;
#49 = VERTEX_POINT ( 'NONE', #188 ) ;
#50 = DIRECTION ( 'NONE',  ( -1.000000000000000000, 0.000000000000000000, 0.000000000000000000 ) ) ;
#51 = APPROVAL_STATUS ( 'not_yet_approved' ) ;
#52 = CIRCLE ( 'NONE', #214, 11.00000000000000000 ) ;
#53 = ORIENTED_EDGE ( 'NONE', *, *, #64, .F. ) ;
#54 = APPROVAL_ROLE ( '' ) ;
#55 = PERSON_AND_ORGANIZATION ( #115, #101 ) ;
#56 = AXIS2_PLACEMENT_3D ( 'NONE', #145, #220, #45 ) ;
#57 = CC_DESIGN_SECURITY_CLASSIFICATION ( #211, ( #233 ) ) ;
#58 = DIRECTION ( 'NONE',  ( 0.000000000000000000, 0.000000000000000000, 1.000000000000000000 ) ) ;
#59 = ORIENTED_EDGE ( 'NONE', *, *, #75, .T. ) ;
#60 = FACE_OUTER_BOUND ( 'NONE', #23, .T. ) ;
#61 = CIRCLE ( 'NONE', #128, 11.00000000000000000 ) ;
#62 = PLANE ( 'NONE',  #17 ) ;
#63 = CARTESIAN_POINT ( 'NONE',  ( 0.000000000000000000, 0.000000000000000000, 0.000000000000000000 ) ) ;
#64 = EDGE_CURVE ( 'NONE', #96, #148, #224, .T. ) ;
#65 = DIRECTION ( 'NONE',  ( -0.000000000000000000, -0.000000000000000000, -1.000000000000000000 ) ) ;
#66 = CALENDAR_DATE ( 2022, 7, 7 ) ;
#67 = CARTESIAN_POINT ( 'NONE',  ( 0.000000000000000000, 0.000000000000000000, 7.000000000000000000 ) ) ;
#68 = DATE_AND_TIME ( #66, #174 ) ;
#69 = APPROVAL_ROLE ( '' ) ;
#70 = VECTOR ( 'NONE', #13, 1000.000000000000000 ) ;
#71 = EDGE_CURVE ( 'NONE', #251, #96, #3, .T. ) ;
#72 = APPROVAL_PERSON_ORGANIZATION ( #85, #225, #69 ) ;
#73 =( GEOMETRIC_REPRESENTATION_CONTEXT ( 3 ) GLOBAL_UNCERTAINTY_ASSIGNED_CONTEXT ( ( #242 ) ) GLOBAL_UNIT_ASSIGNED_CONTEXT ( ( #24, #121, #183 ) ) REPRESENTATION_CONTEXT ( 'NONE', 'WORKASPACE' ) );
#74 = VERTEX_POINT ( 'NONE', #11 ) ;
#75 = EDGE_CURVE ( 'NONE', #74, #42, #112, .T. ) ;
#76 = CARTESIAN_POINT ( 'NONE',  ( -6.750000000000000000, 0.000000000000000000, 507.0000000000000000 ) ) ;
#77 = DIRECTION ( 'NONE',  ( 0.000000000000000000, 0.000000000000000000, 1.000000000000000000 ) ) ;
#78 = AXIS2_PLACEMENT_3D ( 'NONE', #97, #122, #144 ) ;
#79 = PLANE ( 'NONE',  #215 ) ;
#80 = ADVANCED_FACE ( 'NONE', ( #106 ), #166, .T. ) ;
#81 = DIRECTION ( 'NONE',  ( -0.000000000000000000, -0.000000000000000000, -1.000000000000000000 ) ) ;
#82 = APPROVAL ( #232, 'NEURÈENÝ' ) ;
#83 = FACE_OUTER_BOUND ( 'NONE', #218, .T. ) ;
#84 = DIRECTION ( 'NONE',  ( 0.000000000000000000, 0.000000000000000000, 1.000000000000000000 ) ) ;
#85 = PERSON_AND_ORGANIZATION ( #115, #101 ) ;
#86 = CARTESIAN_POINT ( 'NONE',  ( 0.000000000000000000, 0.000000000000000000, 7.000000000000000000 ) ) ;
#87 = AXIS2_PLACEMENT_3D ( 'NONE', #202, #221, #165 ) ;
#88 = PERSON_AND_ORGANIZATION ( #115, #101 ) ;
#89 = DATE_AND_TIME ( #134, #116 ) ;
#90 = DATE_AND_TIME ( #210, #227 ) ;
#91 = ADVANCED_FACE ( 'NONE', ( #163, #207 ), #47, .T. ) ;
#92 = AXIS2_PLACEMENT_3D ( 'NONE', #248, #65, #50 ) ;
#93 = EDGE_CURVE ( 'NONE', #42, #49, #203, .T. ) ;
#94 = ORIENTED_EDGE ( 'NONE', *, *, #249, .T. ) ;
#95 = ORIENTED_EDGE ( 'NONE', *, *, #75, .F. ) ;
#96 = VERTEX_POINT ( 'NONE', #153 ) ;
#97 = CARTESIAN_POINT ( 'NONE',  ( 0.000000000000000000, 0.000000000000000000, 7.000000000000000000 ) ) ;
#98 = ORIENTED_EDGE ( 'NONE', *, *, #22, .F. ) ;
#99 = CYLINDRICAL_SURFACE ( 'NONE', #56, 11.00000000000000000 ) ;
#100 = ORIENTED_EDGE ( 'NONE', *, *, #240, .F. ) ;
#101 = ORGANIZATION ( 'NEURÈENÝ', 'NEURÈENÝ', '' ) ;
#102 = CARTESIAN_POINT ( 'NONE',  ( 0.000000000000000000, 0.000000000000000000, 0.000000000000000000 ) ) ;
#103 = ORIENTED_EDGE ( 'NONE', *, *, #175, .T. ) ;
#104 = DIRECTION ( 'NONE',  ( 0.000000000000000000, 0.000000000000000000, 1.000000000000000000 ) ) ;
#105 = APPLICATION_CONTEXT ( 'configuration controlled 3d designs of mechanical parts and assemblies' ) ;
#106 = FACE_OUTER_BOUND ( 'NONE', #25, .T. ) ;
#107 = PERSON_AND_ORGANIZATION_ROLE ( 'creator' ) ;
#108 = CIRCLE ( 'NONE', #138, 11.00000000000000000 ) ;
#109 = APPROVAL_DATE_TIME ( #90, #143 ) ;
#110 = CC_DESIGN_PERSON_AND_ORGANIZATION_ASSIGNMENT ( #88, #16, ( #211 ) ) ;
#111 = PERSON_AND_ORGANIZATION ( #115, #101 ) ;
#112 = CIRCLE ( 'NONE', #117, 11.00000000000000000 ) ;
#113 = PRODUCT_RELATED_PRODUCT_CATEGORY ( 'detail', '', ( #132 ) ) ;
#114 = VECTOR ( 'NONE', #209, 1000.000000000000000 ) ;
#115 = PERSON ( 'NEURÈENÝ', 'NEURÈENÝ', 'NEURÈENÝ', ('NEURÈENÝ'), ('NEURÈENÝ'), ('NEURÈENÝ') ) ;
#116 = LOCAL_TIME ( 19, 14, 25.00000000000000000, #194 ) ;
#117 = AXIS2_PLACEMENT_3D ( 'NONE', #244, #84, #130 ) ;
#118 = ORIENTED_EDGE ( 'NONE', *, *, #170, .F. ) ;
#119 = ORIENTED_EDGE ( 'NONE', *, *, #139, .T. ) ;
#120 = CYLINDRICAL_SURFACE ( 'NONE', #87, 11.00000000000000000 ) ;
#121 =( NAMED_UNIT ( * ) PLANE_ANGLE_UNIT ( ) SI_UNIT ( $, .RADIAN. ) );
#122 = DIRECTION ( 'NONE',  ( 0.000000000000000000, 0.000000000000000000, 1.000000000000000000 ) ) ;
#123 = DIRECTION ( 'NONE',  ( 0.000000000000000000, 0.000000000000000000, 1.000000000000000000 ) ) ;
#124 = DESIGN_CONTEXT ( 'detailed design', #105, 'design' ) ;
#125 = CC_DESIGN_PERSON_AND_ORGANIZATION_ASSIGNMENT ( #55, #254, ( #132 ) ) ;
#126 = DIRECTION ( 'NONE',  ( 0.000000000000000000, 0.000000000000000000, 1.000000000000000000 ) ) ;
#127 = DIRECTION ( 'NONE',  ( 0.000000000000000000, 0.000000000000000000, 1.000000000000000000 ) ) ;
#128 = AXIS2_PLACEMENT_3D ( 'NONE', #6, #43, #33 ) ;
#129 = LINE ( 'NONE', #184, #135 ) ;
#130 = DIRECTION ( 'NONE',  ( 1.000000000000000000, 0.000000000000000000, 0.000000000000000000 ) ) ;
#131 = PERSON_AND_ORGANIZATION ( #115, #101 ) ;
#132 = PRODUCT ( '7238', '7238', '', ( #226 ) ) ;
#133 = ORIENTED_EDGE ( 'NONE', *, *, #93, .F. ) ;
#134 = CALENDAR_DATE ( 2022, 7, 7 ) ;
#135 = VECTOR ( 'NONE', #12, 1000.000000000000000 ) ;
#136 = CALENDAR_DATE ( 2022, 7, 7 ) ;
#137 = CC_DESIGN_DATE_AND_TIME_ASSIGNMENT ( #229, #158, ( #7 ) ) ;
#138 = AXIS2_PLACEMENT_3D ( 'NONE', #246, #126, #27 ) ;
#139 = EDGE_CURVE ( 'NONE', #41, #148, #26, .T. ) ;
#140 = LOCAL_TIME ( 19, 14, 25.00000000000000000, #250 ) ;
#141 = AXIS2_PLACEMENT_3D ( 'NONE', #102, #150, #223 ) ;
#142 = ORIENTED_EDGE ( 'NONE', *, *, #139, .F. ) ;
#143 = APPROVAL ( #35, 'NEURÈENÝ' ) ;
#144 = DIRECTION ( 'NONE',  ( 1.000000000000000000, 0.000000000000000000, 0.000000000000000000 ) ) ;
#145 = CARTESIAN_POINT ( 'NONE',  ( 0.000000000000000000, 0.000000000000000000, 7.000000000000000000 ) ) ;
#146 = CC_DESIGN_PERSON_AND_ORGANIZATION_ASSIGNMENT ( #173, #39, ( #233 ) ) ;
#147 = CARTESIAN_POINT ( 'NONE',  ( 0.000000000000000000, 0.000000000000000000, 507.0000000000000000 ) ) ;
#148 = VERTEX_POINT ( 'NONE', #219 ) ;
#149 = ADVANCED_FACE ( 'NONE', ( #238 ), #62, .F. ) ;
#150 = DIRECTION ( 'NONE',  ( 0.000000000000000000, 0.000000000000000000, 1.000000000000000000 ) ) ;
#151 = CARTESIAN_POINT ( 'NONE',  ( 11.00000000000000000, 1.347111479062088405E-15, 7.000000000000000000 ) ) ;
#152 = CARTESIAN_POINT ( 'NONE',  ( 0.000000000000000000, 0.000000000000000000, 507.0000000000000000 ) ) ;
#153 = CARTESIAN_POINT ( 'NONE',  ( 6.750000000000000000, 8.266365894244634333E-16, 507.0000000000000000 ) ) ;
#154 = AXIS2_PLACEMENT_3D ( 'NONE', #152, #127, #32 ) ;
#155 = PERSON_AND_ORGANIZATION ( #115, #101 ) ;
#156 = COORDINATED_UNIVERSAL_TIME_OFFSET ( 1, 0, .AHEAD. ) ;
#157 = PRODUCT_DEFINITION_SHAPE ( 'NONE', 'NONE',  #7 ) ;
#158 = DATE_TIME_ROLE ( 'creation_date' ) ;
#159 = CIRCLE ( 'NONE', #193, 6.750000000000000000 ) ;
#160 = DIRECTION ( 'NONE',  ( 1.000000000000000000, 0.000000000000000000, -0.000000000000000000 ) ) ;
#161 = AXIS2_PLACEMENT_3D ( 'NONE', #67, #123, #190 ) ;
#162 = ORIENTED_EDGE ( 'NONE', *, *, #93, .T. ) ;
#163 = FACE_BOUND ( 'NONE', #239, .T. ) ;
#164 = ORIENTED_EDGE ( 'NONE', *, *, #178, .T. ) ;
#165 = DIRECTION ( 'NONE',  ( -1.000000000000000000, 0.000000000000000000, 0.000000000000000000 ) ) ;
#166 = CYLINDRICAL_SURFACE ( 'NONE', #92, 6.750000000000000000 ) ;
#167 = COORDINATED_UNIVERSAL_TIME_OFFSET ( 1, 0, .AHEAD. ) ;
#168 = DIRECTION ( 'NONE',  ( 0.000000000000000000, 0.000000000000000000, 1.000000000000000000 ) ) ;
#169 = DATE_TIME_ROLE ( 'classification_date' ) ;
#170 = EDGE_CURVE ( 'NONE', #96, #251, #159, .T. ) ;
#171 = AXIS2_PLACEMENT_3D ( 'NONE', #86, #168, #4 ) ;
#172 = APPROVAL_DATE_TIME ( #89, #82 ) ;
#173 = PERSON_AND_ORGANIZATION ( #115, #101 ) ;
#174 = LOCAL_TIME ( 19, 14, 25.00000000000000000, #167 ) ;
#175 = EDGE_CURVE ( 'NONE', #148, #41, #40, .T. ) ;
#176 = ADVANCED_BREP_SHAPE_REPRESENTATION ( '7238', ( #216, #141 ), #73 ) ;
#177 = VECTOR ( 'NONE', #243, 1000.000000000000000 ) ;
#178 = EDGE_CURVE ( 'NONE', #74, #179, #206, .T. ) ;
#179 = VERTEX_POINT ( 'NONE', #189 ) ;
#180 = ORIENTED_EDGE ( 'NONE', *, *, #22, .T. ) ;
#181 = ADVANCED_FACE ( 'NONE', ( #83 ), #120, .T. ) ;
#182 = ORIENTED_EDGE ( 'NONE', *, *, #240, .T. ) ;
#183 =( NAMED_UNIT ( * ) SI_UNIT ( $, .STERADIAN. ) SOLID_ANGLE_UNIT ( ) );
#184 = CARTESIAN_POINT ( 'NONE',  ( -6.750000000000000000, 0.000000000000000000, 507.0000000000000000 ) ) ;
#185 = ADVANCED_FACE ( 'NONE', ( #46 ), #79, .T. ) ;
#186 = FACE_OUTER_BOUND ( 'NONE', #2, .T. ) ;
#187 = CARTESIAN_POINT ( 'NONE',  ( -11.00000000000000000, 0.000000000000000000, 7.000000000000000000 ) ) ;
#188 = CARTESIAN_POINT ( 'NONE',  ( 11.00000000000000000, 1.347111479062088405E-15, 0.000000000000000000 ) ) ;
#189 = CARTESIAN_POINT ( 'NONE',  ( -11.00000000000000000, 0.000000000000000000, 0.000000000000000000 ) ) ;
#190 = DIRECTION ( 'NONE',  ( 1.000000000000000000, 0.000000000000000000, -0.000000000000000000 ) ) ;
#191 = APPROVAL_PERSON_ORGANIZATION ( #155, #82, #54 ) ;
#192 = SECURITY_CLASSIFICATION_LEVEL ( 'unclassified' ) ;
#193 = AXIS2_PLACEMENT_3D ( 'NONE', #147, #58, #9 ) ;
#194 = COORDINATED_UNIVERSAL_TIME_OFFSET ( 1, 0, .AHEAD. ) ;
#195 = EDGE_LOOP ( 'NONE', ( #196, #20 ) ) ;
#196 = ORIENTED_EDGE ( 'NONE', *, *, #71, .T. ) ;
#197 = EDGE_LOOP ( 'NONE', ( #44, #98 ) ) ;
#198 = CC_DESIGN_APPROVAL ( #225, ( #7 ) ) ;
#199 = DIRECTION ( 'NONE',  ( 0.000000000000000000, 0.000000000000000000, 1.000000000000000000 ) ) ;
#200 = ORIENTED_EDGE ( 'NONE', *, *, #213, .F. ) ;
#201 = ADVANCED_FACE ( 'NONE', ( #60 ), #99, .T. ) ;
#202 = CARTESIAN_POINT ( 'NONE',  ( 0.000000000000000000, 0.000000000000000000, 7.000000000000000000 ) ) ;
#203 = LINE ( 'NONE', #29, #70 ) ;
#204 = DIRECTION ( 'NONE',  ( 1.000000000000000000, 0.000000000000000000, -0.000000000000000000 ) ) ;
#205 = CARTESIAN_POINT ( 'NONE',  ( -6.750000000000000000, 0.000000000000000000, 7.000000000000000000 ) ) ;
#206 = LINE ( 'NONE', #187, #177 ) ;
#207 = FACE_OUTER_BOUND ( 'NONE', #34, .T. ) ;
#208 = PERSON_AND_ORGANIZATION ( #115, #101 ) ;
#209 = DIRECTION ( 'NONE',  ( -0.000000000000000000, -0.000000000000000000, -1.000000000000000000 ) ) ;
#210 = CALENDAR_DATE ( 2022, 7, 7 ) ;
#211 = SECURITY_CLASSIFICATION ( '', '', #192 ) ;
#212 = DATE_AND_TIME ( #136, #255 ) ;
#213 = EDGE_CURVE ( 'NONE', #251, #41, #129, .T. ) ;
#214 = AXIS2_PLACEMENT_3D ( 'NONE', #63, #77, #222 ) ;
#215 = AXIS2_PLACEMENT_3D ( 'NONE', #28, #199, #204 ) ;
#216 = MANIFOLD_SOLID_BREP ( 'Pøidat vysunutím3', #217 ) ;
#217 = CLOSED_SHELL ( 'NONE', ( #80, #181, #201, #91, #149, #19, #185 ) ) ;
#218 = EDGE_LOOP ( 'NONE', ( #100, #162, #180, #1 ) ) ;
#219 = CARTESIAN_POINT ( 'NONE',  ( 6.750000000000000000, 8.266365894244634333E-16, 7.000000000000000000 ) ) ;
#220 = DIRECTION ( 'NONE',  ( -0.000000000000000000, -0.000000000000000000, -1.000000000000000000 ) ) ;
#221 = DIRECTION ( 'NONE',  ( -0.000000000000000000, -0.000000000000000000, -1.000000000000000000 ) ) ;
#222 = DIRECTION ( 'NONE',  ( 1.000000000000000000, 0.000000000000000000, 0.000000000000000000 ) ) ;
#223 = DIRECTION ( 'NONE',  ( 1.000000000000000000, 0.000000000000000000, 0.000000000000000000 ) ) ;
#224 = LINE ( 'NONE', #36, #114 ) ;
#225 = APPROVAL ( #51, 'NEURÈENÝ' ) ;
#226 = MECHANICAL_CONTEXT ( 'NONE', #247, 'mechanical' ) ;
#227 = LOCAL_TIME ( 19, 14, 25.00000000000000000, #156 ) ;
#228 = CYLINDRICAL_SURFACE ( 'NONE', #231, 6.750000000000000000 ) ;
#229 = DATE_AND_TIME ( #38, #140 ) ;
#230 = ORIENTED_EDGE ( 'NONE', *, *, #64, .T. ) ;
#231 = AXIS2_PLACEMENT_3D ( 'NONE', #8, #81, #245 ) ;
#232 = APPROVAL_STATUS ( 'not_yet_approved' ) ;
#233 = PRODUCT_DEFINITION_FORMATION_WITH_SPECIFIED_SOURCE ( 'LIBOVOLNÝ', '', #132, .NOT_KNOWN. ) ;
#234 = PERSON_AND_ORGANIZATION_ROLE ( 'creator' ) ;
#235 = CC_DESIGN_PERSON_AND_ORGANIZATION_ASSIGNMENT ( #111, #107, ( #7 ) ) ;
#236 = CC_DESIGN_APPROVAL ( #82, ( #211 ) ) ;
#237 = ORIENTED_EDGE ( 'NONE', *, *, #213, .T. ) ;
#238 = FACE_OUTER_BOUND ( 'NONE', #197, .T. ) ;
#239 = EDGE_LOOP ( 'NONE', ( #142, #5 ) ) ;
#240 = EDGE_CURVE ( 'NONE', #42, #74, #61, .T. ) ;
#241 = CARTESIAN_POINT ( 'NONE',  ( 0.000000000000000000, 0.000000000000000000, 0.000000000000000000 ) ) ;
#242 = UNCERTAINTY_MEASURE_WITH_UNIT (LENGTH_MEASURE( 1.000000000000000082E-05 ), #24, 'distance_accuracy_value', 'NONE');
#243 = DIRECTION ( 'NONE',  ( -0.000000000000000000, -0.000000000000000000, -1.000000000000000000 ) ) ;
#244 = CARTESIAN_POINT ( 'NONE',  ( 0.000000000000000000, 0.000000000000000000, 7.000000000000000000 ) ) ;
#245 = DIRECTION ( 'NONE',  ( -1.000000000000000000, 0.000000000000000000, 0.000000000000000000 ) ) ;
#246 = CARTESIAN_POINT ( 'NONE',  ( 0.000000000000000000, 0.000000000000000000, 0.000000000000000000 ) ) ;
#247 = APPLICATION_CONTEXT ( 'configuration controlled 3d designs of mechanical parts and assemblies' ) ;
#248 = CARTESIAN_POINT ( 'NONE',  ( 0.000000000000000000, 0.000000000000000000, 507.0000000000000000 ) ) ;
#249 = EDGE_CURVE ( 'NONE', #179, #49, #108, .T. ) ;
#250 = COORDINATED_UNIVERSAL_TIME_OFFSET ( 1, 0, .AHEAD. ) ;
#251 = VERTEX_POINT ( 'NONE', #76 ) ;
#252 = COORDINATED_UNIVERSAL_TIME_OFFSET ( 1, 0, .AHEAD. ) ;
#253 = SHAPE_DEFINITION_REPRESENTATION ( #157, #176 ) ;
#254 = PERSON_AND_ORGANIZATION_ROLE ( 'design_owner' ) ;
#255 = LOCAL_TIME ( 19, 14, 25.00000000000000000, #252 ) ;
ENDSEC;
END-ISO-10303-21;
