ISO-10303-21;
HEADER;
FILE_DESCRIPTION (( 'STEP AP203' ),
    '1' );
FILE_NAME ('6ec7.STEP',
    '2022-07-07T17:14:17',
    ( '' ),
    ( '' ),
    'SwSTEP 2.0',
    'SolidWorks 2019',
    '' );
FILE_SCHEMA (( 'CONFIG_CONTROL_DESIGN' ));
ENDSEC;

DATA;
#1 = CC_DESIGN_APPROVAL ( #13, ( #245 ) ) ;
#2 = APPLICATION_PROTOCOL_DEFINITION ( 'international standard', 'config_control_design', 1994, #221 ) ;
#3 = DIRECTION ( 'NONE',  ( 0.000000000000000000, 0.000000000000000000, 1.000000000000000000 ) ) ;
#4 = AXIS2_PLACEMENT_3D ( 'NONE', #76, #47, #220 ) ;
#5 = CARTESIAN_POINT ( 'NONE',  ( 0.000000000000000000, 0.000000000000000000, 7.000000000000000000 ) ) ;
#6 = APPROVAL_STATUS ( 'not_yet_approved' ) ;
#7 = AXIS2_PLACEMENT_3D ( 'NONE', #84, #68, #240 ) ;
#8 = EDGE_LOOP ( 'NONE', ( #134, #60 ) ) ;
#9 = FACE_BOUND ( 'NONE', #170, .T. ) ;
#10 = CARTESIAN_POINT ( 'NONE',  ( 0.000000000000000000, 0.000000000000000000, 107.0000000000000142 ) ) ;
#11 = PLANE ( 'NONE',  #249 ) ;
#12 =( LENGTH_UNIT ( ) NAMED_UNIT ( * ) SI_UNIT ( .MILLI., .METRE. ) );
#13 = APPROVAL ( #112, 'NEURÈENÝ' ) ;
#14 = AXIS2_PLACEMENT_3D ( 'NONE', #104, #238, #243 ) ;
#15 = CIRCLE ( 'NONE', #4, 11.00000000000000000 ) ;
#16 = EDGE_CURVE ( 'NONE', #158, #228, #55, .T. ) ;
#17 = CC_DESIGN_APPROVAL ( #126, ( #235 ) ) ;
#18 = EDGE_CURVE ( 'NONE', #234, #94, #31, .T. ) ;
#19 = ORIENTED_EDGE ( 'NONE', *, *, #109, .T. ) ;
#20 = COORDINATED_UNIVERSAL_TIME_OFFSET ( 1, 0, .AHEAD. ) ;
#21 = DATE_AND_TIME ( #194, #187 ) ;
#22 = PERSON_AND_ORGANIZATION ( #209, #250 ) ;
#23 = AXIS2_PLACEMENT_3D ( 'NONE', #162, #106, #48 ) ;
#24 = VERTEX_POINT ( 'NONE', #101 ) ;
#25 = PERSON_AND_ORGANIZATION ( #209, #250 ) ;
#26 = ORIENTED_EDGE ( 'NONE', *, *, #18, .T. ) ;
#27 = PERSON_AND_ORGANIZATION ( #209, #250 ) ;
#28 = CIRCLE ( 'NONE', #114, 7.000000000000000000 ) ;
#29 = ORIENTED_EDGE ( 'NONE', *, *, #45, .F. ) ;
#30 = FACE_OUTER_BOUND ( 'NONE', #150, .T. ) ;
#31 = LINE ( 'NONE', #175, #87 ) ;
#32 = DIRECTION ( 'NONE',  ( -1.000000000000000000, 0.000000000000000000, 0.000000000000000000 ) ) ;
#33 = CARTESIAN_POINT ( 'NONE',  ( -7.000000000000000000, 0.000000000000000000, 107.0000000000000142 ) ) ;
#34 = DIRECTION ( 'NONE',  ( -0.000000000000000000, -0.000000000000000000, -1.000000000000000000 ) ) ;
#35 = AXIS2_PLACEMENT_3D ( 'NONE', #117, #174, #173 ) ;
#36 = AXIS2_PLACEMENT_3D ( 'NONE', #242, #107, #66 ) ;
#37 = EDGE_CURVE ( 'NONE', #132, #24, #230, .T. ) ;
#38 = PRODUCT_DEFINITION_FORMATION_WITH_SPECIFIED_SOURCE ( 'LIBOVOLNÝ', '', #167, .NOT_KNOWN. ) ;
#39 = PERSON_AND_ORGANIZATION ( #209, #250 ) ;
#40 = ADVANCED_FACE ( 'NONE', ( #241 ), #136, .T. ) ;
#41 = ORIENTED_EDGE ( 'NONE', *, *, #111, .T. ) ;
#42 = DATE_TIME_ROLE ( 'creation_date' ) ;
#43 = CARTESIAN_POINT ( 'NONE',  ( 11.00000000000000000, 1.347111479062088405E-15, 7.000000000000000000 ) ) ;
#44 = COORDINATED_UNIVERSAL_TIME_OFFSET ( 1, 0, .AHEAD. ) ;
#45 = EDGE_CURVE ( 'NONE', #254, #94, #189, .T. ) ;
#46 = DIRECTION ( 'NONE',  ( 0.000000000000000000, 0.000000000000000000, 1.000000000000000000 ) ) ;
#47 = DIRECTION ( 'NONE',  ( 0.000000000000000000, 0.000000000000000000, 1.000000000000000000 ) ) ;
#48 = DIRECTION ( 'NONE',  ( -1.000000000000000000, 0.000000000000000000, 0.000000000000000000 ) ) ;
#49 = CC_DESIGN_PERSON_AND_ORGANIZATION_ASSIGNMENT ( #27, #100, ( #235 ) ) ;
#50 = FACE_OUTER_BOUND ( 'NONE', #120, .T. ) ;
#51 = CARTESIAN_POINT ( 'NONE',  ( 11.00000000000000000, 1.347111479062088405E-15, 7.000000000000000000 ) ) ;
#52 = CC_DESIGN_DATE_AND_TIME_ASSIGNMENT ( #255, #211, ( #245 ) ) ;
#53 = ORIENTED_EDGE ( 'NONE', *, *, #177, .F. ) ;
#54 = ORIENTED_EDGE ( 'NONE', *, *, #16, .F. ) ;
#55 = CIRCLE ( 'NONE', #131, 11.00000000000000000 ) ;
#56 = PERSON_AND_ORGANIZATION_ROLE ( 'classification_officer' ) ;
#57 = CALENDAR_DATE ( 2022, 7, 7 ) ;
#58 = EDGE_LOOP ( 'NONE', ( #92, #72, #190, #53 ) ) ;
#59 = APPROVAL_DATE_TIME ( #93, #126 ) ;
#60 = ORIENTED_EDGE ( 'NONE', *, *, #197, .T. ) ;
#61 = ADVANCED_BREP_SHAPE_REPRESENTATION ( '6ec7', ( #208, #35 ), #227 ) ;
#62 = APPROVAL_ROLE ( '' ) ;
#63 = CARTESIAN_POINT ( 'NONE',  ( 0.000000000000000000, 0.000000000000000000, 0.000000000000000000 ) ) ;
#64 = DIRECTION ( 'NONE',  ( 0.000000000000000000, 0.000000000000000000, 1.000000000000000000 ) ) ;
#65 = DIRECTION ( 'NONE',  ( 1.000000000000000000, 0.000000000000000000, 0.000000000000000000 ) ) ;
#66 = DIRECTION ( 'NONE',  ( -1.000000000000000000, 0.000000000000000000, 0.000000000000000000 ) ) ;
#67 = FACE_OUTER_BOUND ( 'NONE', #73, .T. ) ;
#68 = DIRECTION ( 'NONE',  ( 0.000000000000000000, 0.000000000000000000, 1.000000000000000000 ) ) ;
#69 = AXIS2_PLACEMENT_3D ( 'NONE', #160, #34, #32 ) ;
#70 = ORIENTED_EDGE ( 'NONE', *, *, #37, .T. ) ;
#71 = CC_DESIGN_APPROVAL ( #168, ( #38 ) ) ;
#72 = ORIENTED_EDGE ( 'NONE', *, *, #214, .T. ) ;
#73 = EDGE_LOOP ( 'NONE', ( #161, #231, #41, #191 ) ) ;
#74 =( NAMED_UNIT ( * ) SI_UNIT ( $, .STERADIAN. ) SOLID_ANGLE_UNIT ( ) );
#75 = SHAPE_DEFINITION_REPRESENTATION ( #186, #61 ) ;
#76 = CARTESIAN_POINT ( 'NONE',  ( 0.000000000000000000, 0.000000000000000000, 7.000000000000000000 ) ) ;
#77 = APPROVAL_ROLE ( '' ) ;
#78 = DIRECTION ( 'NONE',  ( 0.000000000000000000, 0.000000000000000000, 1.000000000000000000 ) ) ;
#79 = LOCAL_TIME ( 19, 14, 17.00000000000000000, #133 ) ;
#80 = FACE_OUTER_BOUND ( 'NONE', #58, .T. ) ;
#81 = EDGE_CURVE ( 'NONE', #228, #158, #155, .T. ) ;
#82 = DIRECTION ( 'NONE',  ( -0.000000000000000000, -0.000000000000000000, -1.000000000000000000 ) ) ;
#83 = DIRECTION ( 'NONE',  ( 1.000000000000000000, 0.000000000000000000, 0.000000000000000000 ) ) ;
#84 = CARTESIAN_POINT ( 'NONE',  ( 0.000000000000000000, 0.000000000000000000, 107.0000000000000142 ) ) ;
#85 = CARTESIAN_POINT ( 'NONE',  ( 0.000000000000000000, 0.000000000000000000, 107.0000000000000142 ) ) ;
#86 = AXIS2_PLACEMENT_3D ( 'NONE', #85, #64, #144 ) ;
#87 = VECTOR ( 'NONE', #116, 1000.000000000000000 ) ;
#88 = CIRCLE ( 'NONE', #7, 7.000000000000000000 ) ;
#89 = AXIS2_PLACEMENT_3D ( 'NONE', #246, #223, #108 ) ;
#90 = ORIENTED_EDGE ( 'NONE', *, *, #16, .T. ) ;
#91 = APPROVAL_PERSON_ORGANIZATION ( #25, #168, #62 ) ;
#92 = ORIENTED_EDGE ( 'NONE', *, *, #37, .F. ) ;
#93 = DATE_AND_TIME ( #196, #212 ) ;
#94 = VERTEX_POINT ( 'NONE', #138 ) ;
#95 = APPROVAL_DATE_TIME ( #21, #13 ) ;
#96 = LOCAL_TIME ( 19, 14, 17.00000000000000000, #157 ) ;
#97 = APPROVAL_DATE_TIME ( #115, #168 ) ;
#98 = EDGE_CURVE ( 'NONE', #24, #132, #15, .T. ) ;
#99 = ORIENTED_EDGE ( 'NONE', *, *, #109, .F. ) ;
#100 = PERSON_AND_ORGANIZATION_ROLE ( 'creator' ) ;
#101 = CARTESIAN_POINT ( 'NONE',  ( -11.00000000000000000, 0.000000000000000000, 7.000000000000000000 ) ) ;
#102 = DIRECTION ( 'NONE',  ( 0.000000000000000000, 0.000000000000000000, 1.000000000000000000 ) ) ;
#103 = CARTESIAN_POINT ( 'NONE',  ( -11.00000000000000000, 0.000000000000000000, 0.000000000000000000 ) ) ;
#104 = CARTESIAN_POINT ( 'NONE',  ( 0.000000000000000000, 0.000000000000000000, 7.000000000000000000 ) ) ;
#105 = PRODUCT_RELATED_PRODUCT_CATEGORY ( 'detail', '', ( #167 ) ) ;
#106 = DIRECTION ( 'NONE',  ( -0.000000000000000000, -0.000000000000000000, -1.000000000000000000 ) ) ;
#107 = DIRECTION ( 'NONE',  ( -0.000000000000000000, -0.000000000000000000, -1.000000000000000000 ) ) ;
#108 = DIRECTION ( 'NONE',  ( 1.000000000000000000, 0.000000000000000000, -0.000000000000000000 ) ) ;
#109 = EDGE_CURVE ( 'NONE', #94, #254, #28, .T. ) ;
#110 = VECTOR ( 'NONE', #165, 1000.000000000000000 ) ;
#111 = EDGE_CURVE ( 'NONE', #172, #254, #179, .T. ) ;
#112 = APPROVAL_STATUS ( 'not_yet_approved' ) ;
#113 = APPLICATION_PROTOCOL_DEFINITION ( 'international standard', 'config_control_design', 1994, #248 ) ;
#114 = AXIS2_PLACEMENT_3D ( 'NONE', #118, #122, #83 ) ;
#115 = DATE_AND_TIME ( #178, #96 ) ;
#116 = DIRECTION ( 'NONE',  ( -0.000000000000000000, -0.000000000000000000, -1.000000000000000000 ) ) ;
#117 = CARTESIAN_POINT ( 'NONE',  ( 0.000000000000000000, 0.000000000000000000, 0.000000000000000000 ) ) ;
#118 = CARTESIAN_POINT ( 'NONE',  ( 0.000000000000000000, 0.000000000000000000, 7.000000000000000000 ) ) ;
#119 = PERSON_AND_ORGANIZATION_ROLE ( 'design_supplier' ) ;
#120 = EDGE_LOOP ( 'NONE', ( #210, #70 ) ) ;
#121 = CLOSED_SHELL ( 'NONE', ( #251, #143, #226, #193, #188, #247, #40 ) ) ;
#122 = DIRECTION ( 'NONE',  ( 0.000000000000000000, 0.000000000000000000, 1.000000000000000000 ) ) ;
#123 = CARTESIAN_POINT ( 'NONE',  ( 0.000000000000000000, 0.000000000000000000, 107.0000000000000142 ) ) ;
#124 = APPROVAL_PERSON_ORGANIZATION ( #151, #126, #77 ) ;
#125 = DIRECTION ( 'NONE',  ( 1.000000000000000000, 0.000000000000000000, -0.000000000000000000 ) ) ;
#126 = APPROVAL ( #6, 'NEURÈENÝ' ) ;
#127 = CARTESIAN_POINT ( 'NONE',  ( 7.000000000000000000, 8.572527594031473190E-16, 107.0000000000000142 ) ) ;
#128 = LOCAL_TIME ( 19, 14, 17.00000000000000000, #44 ) ;
#129 = ORIENTED_EDGE ( 'NONE', *, *, #214, .F. ) ;
#130 = CC_DESIGN_PERSON_AND_ORGANIZATION_ASSIGNMENT ( #217, #119, ( #38 ) ) ;
#131 = AXIS2_PLACEMENT_3D ( 'NONE', #195, #78, #203 ) ;
#132 = VERTEX_POINT ( 'NONE', #43 ) ;
#133 = COORDINATED_UNIVERSAL_TIME_OFFSET ( 1, 0, .AHEAD. ) ;
#134 = ORIENTED_EDGE ( 'NONE', *, *, #225, .T. ) ;
#135 = DATE_AND_TIME ( #232, #128 ) ;
#136 = PLANE ( 'NONE',  #149 ) ;
#137 = PERSON_AND_ORGANIZATION ( #209, #250 ) ;
#138 = CARTESIAN_POINT ( 'NONE',  ( 7.000000000000000000, 8.572527594031473190E-16, 7.000000000000000000 ) ) ;
#139 = DIRECTION ( 'NONE',  ( -0.000000000000000000, -0.000000000000000000, -1.000000000000000000 ) ) ;
#140 = EDGE_LOOP ( 'NONE', ( #129, #200, #148, #90 ) ) ;
#141 = CYLINDRICAL_SURFACE ( 'NONE', #23, 11.00000000000000000 ) ;
#142 = CYLINDRICAL_SURFACE ( 'NONE', #36, 7.000000000000000000 ) ;
#143 = ADVANCED_FACE ( 'NONE', ( #80 ), #198, .T. ) ;
#144 = DIRECTION ( 'NONE',  ( 1.000000000000000000, 0.000000000000000000, 0.000000000000000000 ) ) ;
#145 = CC_DESIGN_PERSON_AND_ORGANIZATION_ASSIGNMENT ( #137, #253, ( #38 ) ) ;
#146 = AXIS2_PLACEMENT_3D ( 'NONE', #5, #46, #163 ) ;
#147 = VECTOR ( 'NONE', #82, 1000.000000000000000 ) ;
#148 = ORIENTED_EDGE ( 'NONE', *, *, #177, .T. ) ;
#149 = AXIS2_PLACEMENT_3D ( 'NONE', #10, #3, #218 ) ;
#150 = EDGE_LOOP ( 'NONE', ( #54, #216 ) ) ;
#151 = PERSON_AND_ORGANIZATION ( #209, #250 ) ;
#152 = APPROVAL_PERSON_ORGANIZATION ( #39, #13, #192 ) ;
#153 = COORDINATED_UNIVERSAL_TIME_OFFSET ( 1, 0, .AHEAD. ) ;
#154 = CARTESIAN_POINT ( 'NONE',  ( -7.000000000000000000, 0.000000000000000000, 107.0000000000000142 ) ) ;
#155 = CIRCLE ( 'NONE', #185, 11.00000000000000000 ) ;
#156 = UNCERTAINTY_MEASURE_WITH_UNIT (LENGTH_MEASURE( 1.000000000000000082E-05 ), #12, 'distance_accuracy_value', 'NONE');
#157 = COORDINATED_UNIVERSAL_TIME_OFFSET ( 1, 0, .AHEAD. ) ;
#158 = VERTEX_POINT ( 'NONE', #103 ) ;
#159 = CIRCLE ( 'NONE', #86, 7.000000000000000000 ) ;
#160 = CARTESIAN_POINT ( 'NONE',  ( 0.000000000000000000, 0.000000000000000000, 7.000000000000000000 ) ) ;
#161 = ORIENTED_EDGE ( 'NONE', *, *, #18, .F. ) ;
#162 = CARTESIAN_POINT ( 'NONE',  ( 0.000000000000000000, 0.000000000000000000, 7.000000000000000000 ) ) ;
#163 = DIRECTION ( 'NONE',  ( 1.000000000000000000, 0.000000000000000000, 0.000000000000000000 ) ) ;
#164 = FACE_OUTER_BOUND ( 'NONE', #140, .T. ) ;
#165 = DIRECTION ( 'NONE',  ( -0.000000000000000000, -0.000000000000000000, -1.000000000000000000 ) ) ;
#166 = VECTOR ( 'NONE', #236, 1000.000000000000000 ) ;
#167 = PRODUCT ( '6ec7', '6ec7', '', ( #213 ) ) ;
#168 = APPROVAL ( #171, 'NEURÈENÝ' ) ;
#169 = ORIENTED_EDGE ( 'NONE', *, *, #197, .F. ) ;
#170 = EDGE_LOOP ( 'NONE', ( #29, #99 ) ) ;
#171 = APPROVAL_STATUS ( 'not_yet_approved' ) ;
#172 = VERTEX_POINT ( 'NONE', #33 ) ;
#173 = DIRECTION ( 'NONE',  ( 1.000000000000000000, 0.000000000000000000, 0.000000000000000000 ) ) ;
#174 = DIRECTION ( 'NONE',  ( 0.000000000000000000, 0.000000000000000000, 1.000000000000000000 ) ) ;
#175 = CARTESIAN_POINT ( 'NONE',  ( 7.000000000000000000, 8.572527594031473190E-16, 107.0000000000000142 ) ) ;
#176 =( NAMED_UNIT ( * ) PLANE_ANGLE_UNIT ( ) SI_UNIT ( $, .RADIAN. ) );
#177 = EDGE_CURVE ( 'NONE', #24, #158, #201, .T. ) ;
#178 = CALENDAR_DATE ( 2022, 7, 7 ) ;
#179 = LINE ( 'NONE', #154, #166 ) ;
#180 = PLANE ( 'NONE',  #89 ) ;
#181 = EDGE_LOOP ( 'NONE', ( #169, #26, #19, #252 ) ) ;
#182 = CC_DESIGN_PERSON_AND_ORGANIZATION_ASSIGNMENT ( #22, #237, ( #167 ) ) ;
#183 = CARTESIAN_POINT ( 'NONE',  ( 11.00000000000000000, 1.347111479062088405E-15, 0.000000000000000000 ) ) ;
#184 = CARTESIAN_POINT ( 'NONE',  ( -7.000000000000000000, 0.000000000000000000, 7.000000000000000000 ) ) ;
#185 = AXIS2_PLACEMENT_3D ( 'NONE', #63, #102, #65 ) ;
#186 = PRODUCT_DEFINITION_SHAPE ( 'NONE', 'NONE',  #235 ) ;
#187 = LOCAL_TIME ( 19, 14, 17.00000000000000000, #20 ) ;
#188 = ADVANCED_FACE ( 'NONE', ( #30 ), #180, .F. ) ;
#189 = CIRCLE ( 'NONE', #146, 7.000000000000000000 ) ;
#190 = ORIENTED_EDGE ( 'NONE', *, *, #81, .T. ) ;
#191 = ORIENTED_EDGE ( 'NONE', *, *, #45, .T. ) ;
#192 = APPROVAL_ROLE ( '' ) ;
#193 = ADVANCED_FACE ( 'NONE', ( #9, #50 ), #11, .T. ) ;
#194 = CALENDAR_DATE ( 2022, 7, 7 ) ;
#195 = CARTESIAN_POINT ( 'NONE',  ( 0.000000000000000000, 0.000000000000000000, 0.000000000000000000 ) ) ;
#196 = CALENDAR_DATE ( 2022, 7, 7 ) ;
#197 = EDGE_CURVE ( 'NONE', #234, #172, #88, .T. ) ;
#198 = CYLINDRICAL_SURFACE ( 'NONE', #69, 11.00000000000000000 ) ;
#199 = SECURITY_CLASSIFICATION_LEVEL ( 'unclassified' ) ;
#200 = ORIENTED_EDGE ( 'NONE', *, *, #98, .F. ) ;
#201 = LINE ( 'NONE', #224, #110 ) ;
#202 = CC_DESIGN_PERSON_AND_ORGANIZATION_ASSIGNMENT ( #229, #56, ( #245 ) ) ;
#203 = DIRECTION ( 'NONE',  ( 1.000000000000000000, 0.000000000000000000, 0.000000000000000000 ) ) ;
#204 = DIRECTION ( 'NONE',  ( 0.000000000000000000, 0.000000000000000000, 1.000000000000000000 ) ) ;
#205 = FACE_OUTER_BOUND ( 'NONE', #181, .T. ) ;
#206 = LINE ( 'NONE', #51, #147 ) ;
#207 = CC_DESIGN_DATE_AND_TIME_ASSIGNMENT ( #135, #42, ( #235 ) ) ;
#208 = MANIFOLD_SOLID_BREP ( 'Pøidat vysunutím3', #121 ) ;
#209 = PERSON ( 'NEURÈENÝ', 'NEURÈENÝ', 'NEURÈENÝ', ('NEURÈENÝ'), ('NEURÈENÝ'), ('NEURÈENÝ') ) ;
#210 = ORIENTED_EDGE ( 'NONE', *, *, #98, .T. ) ;
#211 = DATE_TIME_ROLE ( 'classification_date' ) ;
#212 = LOCAL_TIME ( 19, 14, 17.00000000000000000, #153 ) ;
#213 = MECHANICAL_CONTEXT ( 'NONE', #221, 'mechanical' ) ;
#214 = EDGE_CURVE ( 'NONE', #132, #228, #206, .T. ) ;
#215 = AXIS2_PLACEMENT_3D ( 'NONE', #123, #139, #219 ) ;
#216 = ORIENTED_EDGE ( 'NONE', *, *, #81, .F. ) ;
#217 = PERSON_AND_ORGANIZATION ( #209, #250 ) ;
#218 = DIRECTION ( 'NONE',  ( 1.000000000000000000, 0.000000000000000000, -0.000000000000000000 ) ) ;
#219 = DIRECTION ( 'NONE',  ( -1.000000000000000000, 0.000000000000000000, 0.000000000000000000 ) ) ;
#220 = DIRECTION ( 'NONE',  ( 1.000000000000000000, 0.000000000000000000, 0.000000000000000000 ) ) ;
#221 = APPLICATION_CONTEXT ( 'configuration controlled 3d designs of mechanical parts and assemblies' ) ;
#222 = CYLINDRICAL_SURFACE ( 'NONE', #215, 7.000000000000000000 ) ;
#223 = DIRECTION ( 'NONE',  ( 0.000000000000000000, 0.000000000000000000, 1.000000000000000000 ) ) ;
#224 = CARTESIAN_POINT ( 'NONE',  ( -11.00000000000000000, 0.000000000000000000, 7.000000000000000000 ) ) ;
#225 = EDGE_CURVE ( 'NONE', #172, #234, #159, .T. ) ;
#226 = ADVANCED_FACE ( 'NONE', ( #164 ), #141, .T. ) ;
#227 =( GEOMETRIC_REPRESENTATION_CONTEXT ( 3 ) GLOBAL_UNCERTAINTY_ASSIGNED_CONTEXT ( ( #156 ) ) GLOBAL_UNIT_ASSIGNED_CONTEXT ( ( #12, #176, #74 ) ) REPRESENTATION_CONTEXT ( 'NONE', 'WORKASPACE' ) );
#228 = VERTEX_POINT ( 'NONE', #183 ) ;
#229 = PERSON_AND_ORGANIZATION ( #209, #250 ) ;
#230 = CIRCLE ( 'NONE', #14, 11.00000000000000000 ) ;
#231 = ORIENTED_EDGE ( 'NONE', *, *, #225, .F. ) ;
#232 = CALENDAR_DATE ( 2022, 7, 7 ) ;
#233 = CC_DESIGN_SECURITY_CLASSIFICATION ( #245, ( #38 ) ) ;
#234 = VERTEX_POINT ( 'NONE', #127 ) ;
#235 = PRODUCT_DEFINITION ( 'NEZNÁMÝ', '', #38, #239 ) ;
#236 = DIRECTION ( 'NONE',  ( -0.000000000000000000, -0.000000000000000000, -1.000000000000000000 ) ) ;
#237 = PERSON_AND_ORGANIZATION_ROLE ( 'design_owner' ) ;
#238 = DIRECTION ( 'NONE',  ( 0.000000000000000000, 0.000000000000000000, 1.000000000000000000 ) ) ;
#239 = DESIGN_CONTEXT ( 'detailed design', #248, 'design' ) ;
#240 = DIRECTION ( 'NONE',  ( 1.000000000000000000, 0.000000000000000000, 0.000000000000000000 ) ) ;
#241 = FACE_OUTER_BOUND ( 'NONE', #8, .T. ) ;
#242 = CARTESIAN_POINT ( 'NONE',  ( 0.000000000000000000, 0.000000000000000000, 107.0000000000000142 ) ) ;
#243 = DIRECTION ( 'NONE',  ( 1.000000000000000000, 0.000000000000000000, 0.000000000000000000 ) ) ;
#244 = CARTESIAN_POINT ( 'NONE',  ( 0.000000000000000000, 0.000000000000000000, 7.000000000000000000 ) ) ;
#245 = SECURITY_CLASSIFICATION ( '', '', #199 ) ;
#246 = CARTESIAN_POINT ( 'NONE',  ( 0.000000000000000000, 0.000000000000000000, 0.000000000000000000 ) ) ;
#247 = ADVANCED_FACE ( 'NONE', ( #67 ), #142, .T. ) ;
#248 = APPLICATION_CONTEXT ( 'configuration controlled 3d designs of mechanical parts and assemblies' ) ;
#249 = AXIS2_PLACEMENT_3D ( 'NONE', #244, #204, #125 ) ;
#250 = ORGANIZATION ( 'NEURÈENÝ', 'NEURÈENÝ', '' ) ;
#251 = ADVANCED_FACE ( 'NONE', ( #205 ), #222, .T. ) ;
#252 = ORIENTED_EDGE ( 'NONE', *, *, #111, .F. ) ;
#253 = PERSON_AND_ORGANIZATION_ROLE ( 'creator' ) ;
#254 = VERTEX_POINT ( 'NONE', #184 ) ;
#255 = DATE_AND_TIME ( #57, #79 ) ;
ENDSEC;
END-ISO-10303-21;
