ISO-10303-21;
HEADER;
FILE_DESCRIPTION (( 'STEP AP203' ),
    '1' );
FILE_NAME ('63d3.STEP',
    '2022-07-07T17:18:23',
    ( '' ),
    ( '' ),
    'SwSTEP 2.0',
    'SolidWorks 2019',
    '' );
FILE_SCHEMA (( 'CONFIG_CONTROL_DESIGN' ));
ENDSEC;

DATA;
#1 = ORIENTED_EDGE ( 'NONE', *, *, #99, .T. ) ;
#2 = CC_DESIGN_PERSON_AND_ORGANIZATION_ASSIGNMENT ( #189, #30, ( #20 ) ) ;
#3 = DIRECTION ( 'NONE',  ( 1.000000000000000000, 0.000000000000000000, 0.000000000000000000 ) ) ;
#4 = DIRECTION ( 'NONE',  ( 1.000000000000000000, 0.000000000000000000, 0.000000000000000000 ) ) ;
#5 = ADVANCED_FACE ( 'NONE', ( #62 ), #192, .F. ) ;
#6 = APPROVAL_PERSON_ORGANIZATION ( #222, #27, #140 ) ;
#7 = APPLICATION_PROTOCOL_DEFINITION ( 'international standard', 'config_control_design', 1994, #26 ) ;
#8 = CARTESIAN_POINT ( 'NONE',  ( 0.000000000000000000, 0.000000000000000000, 0.000000000000000000 ) ) ;
#9 = ORIENTED_EDGE ( 'NONE', *, *, #167, .T. ) ;
#10 = CALENDAR_DATE ( 2022, 7, 7 ) ;
#11 = ORIENTED_EDGE ( 'NONE', *, *, #247, .F. ) ;
#12 = EDGE_LOOP ( 'NONE', ( #92, #1, #186, #252 ) ) ;
#13 = PERSON_AND_ORGANIZATION ( #132, #188 ) ;
#14 = CARTESIAN_POINT ( 'NONE',  ( 0.000000000000000000, 0.000000000000000000, 7.000000000000000000 ) ) ;
#15 = DIRECTION ( 'NONE',  ( 0.000000000000000000, 0.000000000000000000, 1.000000000000000000 ) ) ;
#16 = FACE_OUTER_BOUND ( 'NONE', #12, .T. ) ;
#17 = DIRECTION ( 'NONE',  ( 1.000000000000000000, 0.000000000000000000, -0.000000000000000000 ) ) ;
#18 = FACE_OUTER_BOUND ( 'NONE', #205, .T. ) ;
#19 = VECTOR ( 'NONE', #159, 1000.000000000000000 ) ;
#20 = PRODUCT_DEFINITION ( 'NEZNÁMÝ', '', #160, #77 ) ;
#21 = CIRCLE ( 'NONE', #74, 6.250000000000000000 ) ;
#22 = CARTESIAN_POINT ( 'NONE',  ( -9.000000000000000000, 0.000000000000000000, 7.000000000000000000 ) ) ;
#23 = AXIS2_PLACEMENT_3D ( 'NONE', #204, #98, #59 ) ;
#24 = ADVANCED_FACE ( 'NONE', ( #207 ), #228, .T. ) ;
#25 = FACE_OUTER_BOUND ( 'NONE', #232, .T. ) ;
#26 = APPLICATION_CONTEXT ( 'configuration controlled 3d designs of mechanical parts and assemblies' ) ;
#27 = APPROVAL ( #124, 'NEURÈENÝ' ) ;
#28 = EDGE_LOOP ( 'NONE', ( #251, #135 ) ) ;
#29 = AXIS2_PLACEMENT_3D ( 'NONE', #170, #112, #190 ) ;
#30 = PERSON_AND_ORGANIZATION_ROLE ( 'creator' ) ;
#31 = DIRECTION ( 'NONE',  ( 1.000000000000000000, 0.000000000000000000, -0.000000000000000000 ) ) ;
#32 = ORIENTED_EDGE ( 'NONE', *, *, #162, .T. ) ;
#33 = COORDINATED_UNIVERSAL_TIME_OFFSET ( 1, 0, .AHEAD. ) ;
#34 = CARTESIAN_POINT ( 'NONE',  ( 6.250000000000000000, 7.654042494670957606E-16, 207.0000000000000284 ) ) ;
#35 = CYLINDRICAL_SURFACE ( 'NONE', #198, 9.000000000000000000 ) ;
#36 = VERTEX_POINT ( 'NONE', #183 ) ;
#37 = AXIS2_PLACEMENT_3D ( 'NONE', #97, #41, #116 ) ;
#38 = DATE_AND_TIME ( #75, #79 ) ;
#39 = VERTEX_POINT ( 'NONE', #185 ) ;
#40 = ORIENTED_EDGE ( 'NONE', *, *, #152, .F. ) ;
#41 = DIRECTION ( 'NONE',  ( 0.000000000000000000, 0.000000000000000000, 1.000000000000000000 ) ) ;
#42 = CIRCLE ( 'NONE', #101, 9.000000000000000000 ) ;
#43 = CC_DESIGN_SECURITY_CLASSIFICATION ( #249, ( #160 ) ) ;
#44 = VECTOR ( 'NONE', #231, 1000.000000000000000 ) ;
#45 = ADVANCED_FACE ( 'NONE', ( #16 ), #174, .T. ) ;
#46 = EDGE_LOOP ( 'NONE', ( #240, #234 ) ) ;
#47 = CARTESIAN_POINT ( 'NONE',  ( 0.000000000000000000, 0.000000000000000000, 0.000000000000000000 ) ) ;
#48 = CARTESIAN_POINT ( 'NONE',  ( 0.000000000000000000, 0.000000000000000000, 207.0000000000000284 ) ) ;
#49 = CIRCLE ( 'NONE', #177, 9.000000000000000000 ) ;
#50 = APPROVAL ( #169, 'NEURÈENÝ' ) ;
#51 = PERSON_AND_ORGANIZATION ( #132, #188 ) ;
#52 = DATE_AND_TIME ( #10, #60 ) ;
#53 = ADVANCED_BREP_SHAPE_REPRESENTATION ( '63d3', ( #81, #243 ), #214 ) ;
#54 = DIRECTION ( 'NONE',  ( -0.000000000000000000, -0.000000000000000000, -1.000000000000000000 ) ) ;
#55 = ORIENTED_EDGE ( 'NONE', *, *, #99, .F. ) ;
#56 = COORDINATED_UNIVERSAL_TIME_OFFSET ( 1, 0, .AHEAD. ) ;
#57 = DIRECTION ( 'NONE',  ( 1.000000000000000000, 0.000000000000000000, 0.000000000000000000 ) ) ;
#58 = ADVANCED_FACE ( 'NONE', ( #145 ), #212, .T. ) ;
#59 = DIRECTION ( 'NONE',  ( -1.000000000000000000, 0.000000000000000000, 0.000000000000000000 ) ) ;
#60 = LOCAL_TIME ( 19, 18, 23.00000000000000000, #209 ) ;
#61 = APPLICATION_PROTOCOL_DEFINITION ( 'international standard', 'config_control_design', 1994, #236 ) ;
#62 = FACE_OUTER_BOUND ( 'NONE', #28, .T. ) ;
#63 = PRODUCT ( '63d3', '63d3', '', ( #125 ) ) ;
#64 = EDGE_CURVE ( 'NONE', #200, #154, #194, .T. ) ;
#65 = ORIENTED_EDGE ( 'NONE', *, *, #163, .F. ) ;
#66 = EDGE_CURVE ( 'NONE', #179, #36, #128, .T. ) ;
#67 = CARTESIAN_POINT ( 'NONE',  ( -6.250000000000000000, 0.000000000000000000, 7.000000000000000000 ) ) ;
#68 = DIRECTION ( 'NONE',  ( 0.000000000000000000, 0.000000000000000000, 1.000000000000000000 ) ) ;
#69 = CC_DESIGN_APPROVAL ( #50, ( #20 ) ) ;
#70 = CALENDAR_DATE ( 2022, 7, 7 ) ;
#71 = PRODUCT_RELATED_PRODUCT_CATEGORY ( 'detail', '', ( #63 ) ) ;
#72 = PERSON_AND_ORGANIZATION ( #132, #188 ) ;
#73 = CARTESIAN_POINT ( 'NONE',  ( 0.000000000000000000, 0.000000000000000000, 7.000000000000000000 ) ) ;
#74 = AXIS2_PLACEMENT_3D ( 'NONE', #48, #120, #4 ) ;
#75 = CALENDAR_DATE ( 2022, 7, 7 ) ;
#76 = DIRECTION ( 'NONE',  ( -0.000000000000000000, -0.000000000000000000, -1.000000000000000000 ) ) ;
#77 = DESIGN_CONTEXT ( 'detailed design', #26, 'design' ) ;
#78 = VERTEX_POINT ( 'NONE', #90 ) ;
#79 = LOCAL_TIME ( 19, 18, 23.00000000000000000, #56 ) ;
#80 = ORIENTED_EDGE ( 'NONE', *, *, #66, .T. ) ;
#81 = MANIFOLD_SOLID_BREP ( 'Pøidat vysunutím3', #219 ) ;
#82 = CARTESIAN_POINT ( 'NONE',  ( 6.250000000000000000, 7.654042494670957606E-16, 207.0000000000000284 ) ) ;
#83 = EDGE_LOOP ( 'NONE', ( #88, #80, #253, #248 ) ) ;
#84 = PLANE ( 'NONE',  #138 ) ;
#85 = PERSON_AND_ORGANIZATION_ROLE ( 'creator' ) ;
#86 = DATE_AND_TIME ( #202, #149 ) ;
#87 = CARTESIAN_POINT ( 'NONE',  ( 9.000000000000000000, 1.102182119232617714E-15, 7.000000000000000000 ) ) ;
#88 = ORIENTED_EDGE ( 'NONE', *, *, #230, .F. ) ;
#89 = SECURITY_CLASSIFICATION_LEVEL ( 'unclassified' ) ;
#90 = CARTESIAN_POINT ( 'NONE',  ( 9.000000000000000000, 1.102182119232617714E-15, 7.000000000000000000 ) ) ;
#91 = CIRCLE ( 'NONE', #123, 6.250000000000000000 ) ;
#92 = ORIENTED_EDGE ( 'NONE', *, *, #167, .F. ) ;
#93 = AXIS2_PLACEMENT_3D ( 'NONE', #105, #68, #139 ) ;
#94 = COORDINATED_UNIVERSAL_TIME_OFFSET ( 1, 0, .AHEAD. ) ;
#95 = DIRECTION ( 'NONE',  ( -1.000000000000000000, 0.000000000000000000, 0.000000000000000000 ) ) ;
#96 = CC_DESIGN_PERSON_AND_ORGANIZATION_ASSIGNMENT ( #51, #245, ( #249 ) ) ;
#97 = CARTESIAN_POINT ( 'NONE',  ( 0.000000000000000000, 0.000000000000000000, 7.000000000000000000 ) ) ;
#98 = DIRECTION ( 'NONE',  ( -0.000000000000000000, -0.000000000000000000, -1.000000000000000000 ) ) ;
#99 = EDGE_CURVE ( 'NONE', #78, #200, #193, .T. ) ;
#100 = ADVANCED_FACE ( 'NONE', ( #18 ), #126, .T. ) ;
#101 = AXIS2_PLACEMENT_3D ( 'NONE', #47, #119, #3 ) ;
#102 = CC_DESIGN_DATE_AND_TIME_ASSIGNMENT ( #203, #122, ( #20 ) ) ;
#103 = ORIENTED_EDGE ( 'NONE', *, *, #163, .T. ) ;
#104 = DIRECTION ( 'NONE',  ( 0.000000000000000000, 0.000000000000000000, 1.000000000000000000 ) ) ;
#105 = CARTESIAN_POINT ( 'NONE',  ( 0.000000000000000000, 0.000000000000000000, 7.000000000000000000 ) ) ;
#106 = APPROVAL_PERSON_ORGANIZATION ( #72, #178, #173 ) ;
#107 = DIRECTION ( 'NONE',  ( 0.000000000000000000, 0.000000000000000000, 1.000000000000000000 ) ) ;
#108 = ORIENTED_EDGE ( 'NONE', *, *, #156, .T. ) ;
#109 = VERTEX_POINT ( 'NONE', #175 ) ;
#110 = DIRECTION ( 'NONE',  ( -1.000000000000000000, 0.000000000000000000, 0.000000000000000000 ) ) ;
#111 = APPROVAL_DATE_TIME ( #52, #178 ) ;
#112 = DIRECTION ( 'NONE',  ( 0.000000000000000000, 0.000000000000000000, 1.000000000000000000 ) ) ;
#113 = CIRCLE ( 'NONE', #93, 9.000000000000000000 ) ;
#114 = DIRECTION ( 'NONE',  ( 0.000000000000000000, 0.000000000000000000, 1.000000000000000000 ) ) ;
#115 = CARTESIAN_POINT ( 'NONE',  ( 0.000000000000000000, 0.000000000000000000, 0.000000000000000000 ) ) ;
#116 = DIRECTION ( 'NONE',  ( 1.000000000000000000, 0.000000000000000000, 0.000000000000000000 ) ) ;
#117 = CARTESIAN_POINT ( 'NONE',  ( 0.000000000000000000, 0.000000000000000000, 7.000000000000000000 ) ) ;
#118 = LOCAL_TIME ( 19, 18, 23.00000000000000000, #94 ) ;
#119 = DIRECTION ( 'NONE',  ( 0.000000000000000000, 0.000000000000000000, 1.000000000000000000 ) ) ;
#120 = DIRECTION ( 'NONE',  ( 0.000000000000000000, 0.000000000000000000, 1.000000000000000000 ) ) ;
#121 = ADVANCED_FACE ( 'NONE', ( #254 ), #35, .T. ) ;
#122 = DATE_TIME_ROLE ( 'creation_date' ) ;
#123 = AXIS2_PLACEMENT_3D ( 'NONE', #14, #158, #217 ) ;
#124 = APPROVAL_STATUS ( 'not_yet_approved' ) ;
#125 = MECHANICAL_CONTEXT ( 'NONE', #236, 'mechanical' ) ;
#126 = CYLINDRICAL_SURFACE ( 'NONE', #23, 6.250000000000000000 ) ;
#127 = APPROVAL_ROLE ( '' ) ;
#128 = LINE ( 'NONE', #34, #44 ) ;
#129 = APPROVAL_DATE_TIME ( #38, #50 ) ;
#130 = CARTESIAN_POINT ( 'NONE',  ( 0.000000000000000000, 0.000000000000000000, 207.0000000000000284 ) ) ;
#131 = DIRECTION ( 'NONE',  ( -0.000000000000000000, -0.000000000000000000, -1.000000000000000000 ) ) ;
#132 = PERSON ( 'NEURÈENÝ', 'NEURÈENÝ', 'NEURÈENÝ', ('NEURÈENÝ'), ('NEURÈENÝ'), ('NEURÈENÝ') ) ;
#133 = CARTESIAN_POINT ( 'NONE',  ( 0.000000000000000000, 0.000000000000000000, 0.000000000000000000 ) ) ;
#134 = CC_DESIGN_PERSON_AND_ORGANIZATION_ASSIGNMENT ( #13, #85, ( #160 ) ) ;
#135 = ORIENTED_EDGE ( 'NONE', *, *, #64, .F. ) ;
#136 = DIRECTION ( 'NONE',  ( -0.000000000000000000, -0.000000000000000000, -1.000000000000000000 ) ) ;
#137 = AXIS2_PLACEMENT_3D ( 'NONE', #115, #107, #210 ) ;
#138 = AXIS2_PLACEMENT_3D ( 'NONE', #213, #15, #17 ) ;
#139 = DIRECTION ( 'NONE',  ( 1.000000000000000000, 0.000000000000000000, 0.000000000000000000 ) ) ;
#140 = APPROVAL_ROLE ( '' ) ;
#141 = EDGE_CURVE ( 'NONE', #39, #179, #216, .T. ) ;
#142 = PERSON_AND_ORGANIZATION_ROLE ( 'design_owner' ) ;
#143 = PERSON_AND_ORGANIZATION ( #132, #188 ) ;
#144 = ORIENTED_EDGE ( 'NONE', *, *, #141, .F. ) ;
#145 = FACE_OUTER_BOUND ( 'NONE', #83, .T. ) ;
#146 = ORIENTED_EDGE ( 'NONE', *, *, #157, .T. ) ;
#147 = DIRECTION ( 'NONE',  ( -1.000000000000000000, 0.000000000000000000, 0.000000000000000000 ) ) ;
#148 = DIRECTION ( 'NONE',  ( -0.000000000000000000, -0.000000000000000000, -1.000000000000000000 ) ) ;
#149 = LOCAL_TIME ( 19, 18, 23.00000000000000000, #33 ) ;
#150 = EDGE_LOOP ( 'NONE', ( #55, #65, #108, #146 ) ) ;
#151 = CC_DESIGN_DATE_AND_TIME_ASSIGNMENT ( #201, #227, ( #249 ) ) ;
#152 = EDGE_CURVE ( 'NONE', #181, #36, #91, .T. ) ;
#153 = VECTOR ( 'NONE', #136, 1000.000000000000000 ) ;
#154 = VERTEX_POINT ( 'NONE', #197 ) ;
#155 = PRODUCT_DEFINITION_SHAPE ( 'NONE', 'NONE',  #20 ) ;
#156 = EDGE_CURVE ( 'NONE', #109, #154, #182, .T. ) ;
#157 = EDGE_CURVE ( 'NONE', #154, #200, #42, .T. ) ;
#158 = DIRECTION ( 'NONE',  ( 0.000000000000000000, 0.000000000000000000, 1.000000000000000000 ) ) ;
#159 = DIRECTION ( 'NONE',  ( -0.000000000000000000, -0.000000000000000000, -1.000000000000000000 ) ) ;
#160 = PRODUCT_DEFINITION_FORMATION_WITH_SPECIFIED_SOURCE ( 'LIBOVOLNÝ', '', #63, .NOT_KNOWN. ) ;
#161 = LOCAL_TIME ( 19, 18, 23.00000000000000000, #164 ) ;
#162 = EDGE_CURVE ( 'NONE', #39, #181, #241, .T. ) ;
#163 = EDGE_CURVE ( 'NONE', #109, #78, #113, .T. ) ;
#164 = COORDINATED_UNIVERSAL_TIME_OFFSET ( 1, 0, .AHEAD. ) ;
#165 = SHAPE_DEFINITION_REPRESENTATION ( #155, #53 ) ;
#166 = DIRECTION ( 'NONE',  ( 0.000000000000000000, 0.000000000000000000, 1.000000000000000000 ) ) ;
#167 = EDGE_CURVE ( 'NONE', #78, #109, #49, .T. ) ;
#168 = ORIENTED_EDGE ( 'NONE', *, *, #66, .F. ) ;
#169 = APPROVAL_STATUS ( 'not_yet_approved' ) ;
#170 = CARTESIAN_POINT ( 'NONE',  ( 0.000000000000000000, 0.000000000000000000, 207.0000000000000284 ) ) ;
#171 = ORIENTED_EDGE ( 'NONE', *, *, #152, .T. ) ;
#172 = UNCERTAINTY_MEASURE_WITH_UNIT (LENGTH_MEASURE( 1.000000000000000082E-05 ), #211, 'distance_accuracy_value', 'NONE');
#173 = APPROVAL_ROLE ( '' ) ;
#174 = CYLINDRICAL_SURFACE ( 'NONE', #255, 9.000000000000000000 ) ;
#175 = CARTESIAN_POINT ( 'NONE',  ( -9.000000000000000000, 0.000000000000000000, 7.000000000000000000 ) ) ;
#176 =( NAMED_UNIT ( * ) PLANE_ANGLE_UNIT ( ) SI_UNIT ( $, .RADIAN. ) );
#177 = AXIS2_PLACEMENT_3D ( 'NONE', #220, #104, #180 ) ;
#178 = APPROVAL ( #184, 'NEURÈENÝ' ) ;
#179 = VERTEX_POINT ( 'NONE', #82 ) ;
#180 = DIRECTION ( 'NONE',  ( 1.000000000000000000, 0.000000000000000000, 0.000000000000000000 ) ) ;
#181 = VERTEX_POINT ( 'NONE', #67 ) ;
#182 = LINE ( 'NONE', #22, #19 ) ;
#183 = CARTESIAN_POINT ( 'NONE',  ( 6.250000000000000000, 7.654042494670957606E-16, 7.000000000000000000 ) ) ;
#184 = APPROVAL_STATUS ( 'not_yet_approved' ) ;
#185 = CARTESIAN_POINT ( 'NONE',  ( -6.250000000000000000, 0.000000000000000000, 207.0000000000000284 ) ) ;
#186 = ORIENTED_EDGE ( 'NONE', *, *, #64, .T. ) ;
#187 = CC_DESIGN_PERSON_AND_ORGANIZATION_ASSIGNMENT ( #206, #142, ( #63 ) ) ;
#188 = ORGANIZATION ( 'NEURÈENÝ', 'NEURÈENÝ', '' ) ;
#189 = PERSON_AND_ORGANIZATION ( #132, #188 ) ;
#190 = DIRECTION ( 'NONE',  ( 1.000000000000000000, 0.000000000000000000, 0.000000000000000000 ) ) ;
#191 = DIRECTION ( 'NONE',  ( 1.000000000000000000, 0.000000000000000000, 0.000000000000000000 ) ) ;
#192 = PLANE ( 'NONE',  #137 ) ;
#193 = LINE ( 'NONE', #87, #237 ) ;
#194 = CIRCLE ( 'NONE', #242, 9.000000000000000000 ) ;
#195 = AXIS2_PLACEMENT_3D ( 'NONE', #226, #54, #95 ) ;
#196 = CC_DESIGN_PERSON_AND_ORGANIZATION_ASSIGNMENT ( #143, #225, ( #160 ) ) ;
#197 = CARTESIAN_POINT ( 'NONE',  ( -9.000000000000000000, 0.000000000000000000, 0.000000000000000000 ) ) ;
#198 = AXIS2_PLACEMENT_3D ( 'NONE', #73, #148, #110 ) ;
#199 = FACE_BOUND ( 'NONE', #229, .T. ) ;
#200 = VERTEX_POINT ( 'NONE', #218 ) ;
#201 = DATE_AND_TIME ( #70, #118 ) ;
#202 = CALENDAR_DATE ( 2022, 7, 7 ) ;
#203 = DATE_AND_TIME ( #250, #161 ) ;
#204 = CARTESIAN_POINT ( 'NONE',  ( 0.000000000000000000, 0.000000000000000000, 207.0000000000000284 ) ) ;
#205 = EDGE_LOOP ( 'NONE', ( #168, #144, #32, #171 ) ) ;
#206 = PERSON_AND_ORGANIZATION ( #132, #188 ) ;
#207 = FACE_OUTER_BOUND ( 'NONE', #46, .T. ) ;
#208 = CIRCLE ( 'NONE', #37, 6.250000000000000000 ) ;
#209 = COORDINATED_UNIVERSAL_TIME_OFFSET ( 1, 0, .AHEAD. ) ;
#210 = DIRECTION ( 'NONE',  ( 1.000000000000000000, 0.000000000000000000, -0.000000000000000000 ) ) ;
#211 =( LENGTH_UNIT ( ) NAMED_UNIT ( * ) SI_UNIT ( .MILLI., .METRE. ) );
#212 = CYLINDRICAL_SURFACE ( 'NONE', #195, 6.250000000000000000 ) ;
#213 = CARTESIAN_POINT ( 'NONE',  ( 0.000000000000000000, 0.000000000000000000, 7.000000000000000000 ) ) ;
#214 =( GEOMETRIC_REPRESENTATION_CONTEXT ( 3 ) GLOBAL_UNCERTAINTY_ASSIGNED_CONTEXT ( ( #172 ) ) GLOBAL_UNIT_ASSIGNED_CONTEXT ( ( #211, #176, #235 ) ) REPRESENTATION_CONTEXT ( 'NONE', 'WORKASPACE' ) );
#215 = CC_DESIGN_APPROVAL ( #178, ( #160 ) ) ;
#216 = CIRCLE ( 'NONE', #29, 6.250000000000000000 ) ;
#217 = DIRECTION ( 'NONE',  ( 1.000000000000000000, 0.000000000000000000, 0.000000000000000000 ) ) ;
#218 = CARTESIAN_POINT ( 'NONE',  ( 9.000000000000000000, 1.102182119232617714E-15, 0.000000000000000000 ) ) ;
#219 = CLOSED_SHELL ( 'NONE', ( #58, #45, #121, #246, #5, #100, #24 ) ) ;
#220 = CARTESIAN_POINT ( 'NONE',  ( 0.000000000000000000, 0.000000000000000000, 7.000000000000000000 ) ) ;
#221 = APPROVAL_DATE_TIME ( #86, #27 ) ;
#222 = PERSON_AND_ORGANIZATION ( #132, #188 ) ;
#223 = AXIS2_PLACEMENT_3D ( 'NONE', #130, #166, #31 ) ;
#224 = APPROVAL_PERSON_ORGANIZATION ( #244, #50, #127 ) ;
#225 = PERSON_AND_ORGANIZATION_ROLE ( 'design_supplier' ) ;
#226 = CARTESIAN_POINT ( 'NONE',  ( 0.000000000000000000, 0.000000000000000000, 207.0000000000000284 ) ) ;
#227 = DATE_TIME_ROLE ( 'classification_date' ) ;
#228 = PLANE ( 'NONE',  #223 ) ;
#229 = EDGE_LOOP ( 'NONE', ( #40, #11 ) ) ;
#230 = EDGE_CURVE ( 'NONE', #179, #39, #21, .T. ) ;
#231 = DIRECTION ( 'NONE',  ( -0.000000000000000000, -0.000000000000000000, -1.000000000000000000 ) ) ;
#232 = EDGE_LOOP ( 'NONE', ( #103, #9 ) ) ;
#233 = DIRECTION ( 'NONE',  ( 0.000000000000000000, 0.000000000000000000, 1.000000000000000000 ) ) ;
#234 = ORIENTED_EDGE ( 'NONE', *, *, #230, .T. ) ;
#235 =( NAMED_UNIT ( * ) SI_UNIT ( $, .STERADIAN. ) SOLID_ANGLE_UNIT ( ) );
#236 = APPLICATION_CONTEXT ( 'configuration controlled 3d designs of mechanical parts and assemblies' ) ;
#237 = VECTOR ( 'NONE', #131, 1000.000000000000000 ) ;
#238 = CC_DESIGN_APPROVAL ( #27, ( #249 ) ) ;
#239 = CARTESIAN_POINT ( 'NONE',  ( -6.250000000000000000, 0.000000000000000000, 207.0000000000000284 ) ) ;
#240 = ORIENTED_EDGE ( 'NONE', *, *, #141, .T. ) ;
#241 = LINE ( 'NONE', #239, #153 ) ;
#242 = AXIS2_PLACEMENT_3D ( 'NONE', #8, #233, #57 ) ;
#243 = AXIS2_PLACEMENT_3D ( 'NONE', #133, #114, #191 ) ;
#244 = PERSON_AND_ORGANIZATION ( #132, #188 ) ;
#245 = PERSON_AND_ORGANIZATION_ROLE ( 'classification_officer' ) ;
#246 = ADVANCED_FACE ( 'NONE', ( #199, #25 ), #84, .T. ) ;
#247 = EDGE_CURVE ( 'NONE', #36, #181, #208, .T. ) ;
#248 = ORIENTED_EDGE ( 'NONE', *, *, #162, .F. ) ;
#249 = SECURITY_CLASSIFICATION ( '', '', #89 ) ;
#250 = CALENDAR_DATE ( 2022, 7, 7 ) ;
#251 = ORIENTED_EDGE ( 'NONE', *, *, #157, .F. ) ;
#252 = ORIENTED_EDGE ( 'NONE', *, *, #156, .F. ) ;
#253 = ORIENTED_EDGE ( 'NONE', *, *, #247, .T. ) ;
#254 = FACE_OUTER_BOUND ( 'NONE', #150, .T. ) ;
#255 = AXIS2_PLACEMENT_3D ( 'NONE', #117, #76, #147 ) ;
ENDSEC;
END-ISO-10303-21;
