ISO-10303-21;
HEADER;
FILE_DESCRIPTION (( 'STEP AP203' ),
    '1' );
FILE_NAME ('6fc5.STEP',
    '2023-02-13T14:49:43',
    ( '' ),
    ( '' ),
    'SwSTEP 2.0',
    'SolidWorks 2019',
    '' );
FILE_SCHEMA (( 'CONFIG_CONTROL_DESIGN' ));
ENDSEC;

DATA;
#1 = AXIS2_PLACEMENT_3D ( 'NONE', #134, #219, #131 ) ;
#2 = CIRCLE ( 'NONE', #122, 6.000000000000000888 ) ;
#3 = ORIENTED_EDGE ( 'NONE', *, *, #194, .F. ) ;
#4 = PLANE ( 'NONE',  #210 ) ;
#5 = EDGE_CURVE ( 'NONE', #67, #47, #21, .T. ) ;
#6 = AXIS2_PLACEMENT_3D ( 'NONE', #129, #98, #99 ) ;
#7 = CC_DESIGN_APPROVAL ( #230, ( #220 ) ) ;
#8 = APPROVAL_PERSON_ORGANIZATION ( #84, #230, #112 ) ;
#9 = ORIENTED_EDGE ( 'NONE', *, *, #53, .F. ) ;
#10 = CARTESIAN_POINT ( 'NONE',  ( 0.000000000000000000, 0.000000000000000000, 5.000000000000000000 ) ) ;
#11 =( NAMED_UNIT ( * ) PLANE_ANGLE_UNIT ( ) SI_UNIT ( $, .RADIAN. ) );
#12 = CALENDAR_DATE ( 2023, 13, 2 ) ;
#13 = AXIS2_PLACEMENT_3D ( 'NONE', #221, #58, #132 ) ;
#14 = DIRECTION ( 'NONE',  ( 1.000000000000000000, 0.000000000000000000, 0.000000000000000000 ) ) ;
#15 = AXIS2_PLACEMENT_3D ( 'NONE', #147, #23, #151 ) ;
#16 = LINE ( 'NONE', #216, #153 ) ;
#17 = ADVANCED_FACE ( 'NONE', ( #252 ), #137, .T. ) ;
#18 = PRODUCT ( '6fc5', '6fc5', '', ( #164 ) ) ;
#19 = EDGE_LOOP ( 'NONE', ( #76, #41 ) ) ;
#20 = PERSON_AND_ORGANIZATION ( #66, #120 ) ;
#21 = LINE ( 'NONE', #251, #187 ) ;
#22 = PERSON_AND_ORGANIZATION_ROLE ( 'classification_officer' ) ;
#23 = DIRECTION ( 'NONE',  ( 0.000000000000000000, 0.000000000000000000, 1.000000000000000000 ) ) ;
#24 = VERTEX_POINT ( 'NONE', #135 ) ;
#25 = CYLINDRICAL_SURFACE ( 'NONE', #54, 3.750000000000000000 ) ;
#26 = AXIS2_PLACEMENT_3D ( 'NONE', #142, #74, #234 ) ;
#27 = ADVANCED_FACE ( 'NONE', ( #139 ), #25, .T. ) ;
#28 = CARTESIAN_POINT ( 'NONE',  ( -3.750000000000000000, 0.000000000000000000, 200.0000000000000000 ) ) ;
#29 = FACE_OUTER_BOUND ( 'NONE', #209, .T. ) ;
#30 = ORIENTED_EDGE ( 'NONE', *, *, #190, .F. ) ;
#31 = AXIS2_PLACEMENT_3D ( 'NONE', #109, #177, #223 ) ;
#32 = EDGE_LOOP ( 'NONE', ( #185, #178, #92, #198 ) ) ;
#33 = APPROVAL_STATUS ( 'not_yet_approved' ) ;
#34 = CYLINDRICAL_SURFACE ( 'NONE', #189, 6.000000000000000888 ) ;
#35 = APPROVAL_DATE_TIME ( #59, #230 ) ;
#36 = CIRCLE ( 'NONE', #208, 3.750000000000000000 ) ;
#37 = DATE_AND_TIME ( #200, #193 ) ;
#38 = ADVANCED_BREP_SHAPE_REPRESENTATION ( '6fc5', ( #238, #175 ), #225 ) ;
#39 = CLOSED_SHELL ( 'NONE', ( #27, #152, #40, #231, #65, #17, #179 ) ) ;
#40 = ADVANCED_FACE ( 'NONE', ( #29 ), #125, .T. ) ;
#41 = ORIENTED_EDGE ( 'NONE', *, *, #212, .F. ) ;
#42 = COORDINATED_UNIVERSAL_TIME_OFFSET ( 1, 0, .AHEAD. ) ;
#43 = SECURITY_CLASSIFICATION ( '', '', #101 ) ;
#44 = DATE_AND_TIME ( #186, #155 ) ;
#45 = AXIS2_PLACEMENT_3D ( 'NONE', #181, #55, #239 ) ;
#46 = CC_DESIGN_APPROVAL ( #226, ( #43 ) ) ;
#47 = VERTEX_POINT ( 'NONE', #207 ) ;
#48 = DIRECTION ( 'NONE',  ( 1.000000000000000000, 0.000000000000000000, 0.000000000000000000 ) ) ;
#49 = CC_DESIGN_PERSON_AND_ORGANIZATION_ASSIGNMENT ( #228, #22, ( #43 ) ) ;
#50 = ORIENTED_EDGE ( 'NONE', *, *, #100, .F. ) ;
#51 = PERSON_AND_ORGANIZATION_ROLE ( 'design_owner' ) ;
#52 = FACE_OUTER_BOUND ( 'NONE', #19, .T. ) ;
#53 = EDGE_CURVE ( 'NONE', #214, #242, #123, .T. ) ;
#54 = AXIS2_PLACEMENT_3D ( 'NONE', #255, #91, #154 ) ;
#55 = DIRECTION ( 'NONE',  ( 0.000000000000000000, 0.000000000000000000, 1.000000000000000000 ) ) ;
#56 = ORIENTED_EDGE ( 'NONE', *, *, #5, .T. ) ;
#57 = DIRECTION ( 'NONE',  ( 1.000000000000000000, 0.000000000000000000, 0.000000000000000000 ) ) ;
#58 = DIRECTION ( 'NONE',  ( -0.000000000000000000, -0.000000000000000000, -1.000000000000000000 ) ) ;
#59 = DATE_AND_TIME ( #12, #119 ) ;
#60 = DIRECTION ( 'NONE',  ( 0.000000000000000000, 0.000000000000000000, 1.000000000000000000 ) ) ;
#61 = CIRCLE ( 'NONE', #203, 3.750000000000000000 ) ;
#62 = DATE_AND_TIME ( #195, #102 ) ;
#63 = AXIS2_PLACEMENT_3D ( 'NONE', #241, #81, #14 ) ;
#64 = DATE_AND_TIME ( #86, #148 ) ;
#65 = ADVANCED_FACE ( 'NONE', ( #52 ), #144, .F. ) ;
#66 = PERSON ( 'NEURÈENÝ', 'NEURÈENÝ', 'NEURÈENÝ', ('NEURÈENÝ'), ('NEURÈENÝ'), ('NEURÈENÝ') ) ;
#67 = VERTEX_POINT ( 'NONE', #80 ) ;
#68 = DIRECTION ( 'NONE',  ( -0.000000000000000000, -0.000000000000000000, -1.000000000000000000 ) ) ;
#69 = PERSON_AND_ORGANIZATION ( #66, #120 ) ;
#70 = APPROVAL_PERSON_ORGANIZATION ( #136, #145, #184 ) ;
#71 = SHAPE_DEFINITION_REPRESENTATION ( #150, #38 ) ;
#72 = FACE_OUTER_BOUND ( 'NONE', #77, .T. ) ;
#73 = EDGE_LOOP ( 'NONE', ( #3, #237, #95, #141 ) ) ;
#74 = DIRECTION ( 'NONE',  ( 0.000000000000000000, 0.000000000000000000, 1.000000000000000000 ) ) ;
#75 = CC_DESIGN_PERSON_AND_ORGANIZATION_ASSIGNMENT ( #246, #51, ( #18 ) ) ;
#76 = ORIENTED_EDGE ( 'NONE', *, *, #248, .F. ) ;
#77 = EDGE_LOOP ( 'NONE', ( #249, #240 ) ) ;
#78 = EDGE_LOOP ( 'NONE', ( #30, #56, #83, #9 ) ) ;
#79 = DIRECTION ( 'NONE',  ( -0.000000000000000000, -0.000000000000000000, -1.000000000000000000 ) ) ;
#80 = CARTESIAN_POINT ( 'NONE',  ( 3.750000000000000000, 4.592425496802573972E-16, 200.0000000000000000 ) ) ;
#81 = DIRECTION ( 'NONE',  ( 0.000000000000000000, 0.000000000000000000, 1.000000000000000000 ) ) ;
#82 = EDGE_CURVE ( 'NONE', #47, #242, #61, .T. ) ;
#83 = ORIENTED_EDGE ( 'NONE', *, *, #82, .T. ) ;
#84 = PERSON_AND_ORGANIZATION ( #66, #120 ) ;
#85 = PRODUCT_RELATED_PRODUCT_CATEGORY ( 'detail', '', ( #18 ) ) ;
#86 = CALENDAR_DATE ( 2023, 13, 2 ) ;
#87 = PERSON_AND_ORGANIZATION_ROLE ( 'design_supplier' ) ;
#88 = APPROVAL_ROLE ( '' ) ;
#89 = EDGE_CURVE ( 'NONE', #149, #201, #16, .T. ) ;
#90 = CARTESIAN_POINT ( 'NONE',  ( 6.000000000000000888, 7.347880794884120722E-16, 5.000000000000000000 ) ) ;
#91 = DIRECTION ( 'NONE',  ( -0.000000000000000000, -0.000000000000000000, -1.000000000000000000 ) ) ;
#92 = ORIENTED_EDGE ( 'NONE', *, *, #53, .T. ) ;
#93 = APPLICATION_CONTEXT ( 'configuration controlled 3d designs of mechanical parts and assemblies' ) ;
#94 =( NAMED_UNIT ( * ) SI_UNIT ( $, .STERADIAN. ) SOLID_ANGLE_UNIT ( ) );
#95 = ORIENTED_EDGE ( 'NONE', *, *, #212, .T. ) ;
#96 = CARTESIAN_POINT ( 'NONE',  ( -3.750000000000000000, 0.000000000000000000, 5.000000000000000000 ) ) ;
#97 =( LENGTH_UNIT ( ) NAMED_UNIT ( * ) SI_UNIT ( .MILLI., .METRE. ) );
#98 = DIRECTION ( 'NONE',  ( 0.000000000000000000, 0.000000000000000000, 1.000000000000000000 ) ) ;
#99 = DIRECTION ( 'NONE',  ( 1.000000000000000000, 0.000000000000000000, 0.000000000000000000 ) ) ;
#100 = EDGE_CURVE ( 'NONE', #242, #47, #217, .T. ) ;
#101 = SECURITY_CLASSIFICATION_LEVEL ( 'unclassified' ) ;
#102 = LOCAL_TIME ( 15, 49, 43.00000000000000000, #161 ) ;
#103 = PERSON_AND_ORGANIZATION ( #66, #120 ) ;
#104 = APPROVAL_STATUS ( 'not_yet_approved' ) ;
#105 = DIRECTION ( 'NONE',  ( 0.000000000000000000, 0.000000000000000000, 1.000000000000000000 ) ) ;
#106 = FACE_BOUND ( 'NONE', #191, .T. ) ;
#107 = ORIENTED_EDGE ( 'NONE', *, *, #248, .T. ) ;
#108 = CARTESIAN_POINT ( 'NONE',  ( -3.750000000000000000, 0.000000000000000000, 200.0000000000000000 ) ) ;
#109 = CARTESIAN_POINT ( 'NONE',  ( 0.000000000000000000, 0.000000000000000000, 5.000000000000000000 ) ) ;
#110 = CARTESIAN_POINT ( 'NONE',  ( 0.000000000000000000, 0.000000000000000000, 0.000000000000000000 ) ) ;
#111 = EDGE_CURVE ( 'NONE', #149, #113, #244, .T. ) ;
#112 = APPROVAL_ROLE ( '' ) ;
#113 = VERTEX_POINT ( 'NONE', #199 ) ;
#114 = PERSON_AND_ORGANIZATION_ROLE ( 'creator' ) ;
#115 = DATE_TIME_ROLE ( 'creation_date' ) ;
#116 = PRODUCT_DEFINITION_FORMATION_WITH_SPECIFIED_SOURCE ( 'LIBOVOLNÝ', '', #18, .NOT_KNOWN. ) ;
#117 = APPROVAL_DATE_TIME ( #37, #145 ) ;
#118 = CC_DESIGN_DATE_AND_TIME_ASSIGNMENT ( #62, #115, ( #220 ) ) ;
#119 = LOCAL_TIME ( 15, 49, 43.00000000000000000, #196 ) ;
#120 = ORGANIZATION ( 'NEURÈENÝ', 'NEURÈENÝ', '' ) ;
#121 = CC_DESIGN_PERSON_AND_ORGANIZATION_ASSIGNMENT ( #20, #87, ( #116 ) ) ;
#122 = AXIS2_PLACEMENT_3D ( 'NONE', #204, #156, #48 ) ;
#123 = LINE ( 'NONE', #108, #222 ) ;
#124 = DESIGN_CONTEXT ( 'detailed design', #93, 'design' ) ;
#125 = CYLINDRICAL_SURFACE ( 'NONE', #31, 6.000000000000000888 ) ;
#126 = APPLICATION_PROTOCOL_DEFINITION ( 'international standard', 'config_control_design', 1994, #93 ) ;
#127 = DIRECTION ( 'NONE',  ( -0.000000000000000000, -0.000000000000000000, -1.000000000000000000 ) ) ;
#128 = ORIENTED_EDGE ( 'NONE', *, *, #111, .T. ) ;
#129 = CARTESIAN_POINT ( 'NONE',  ( 0.000000000000000000, 0.000000000000000000, 5.000000000000000000 ) ) ;
#130 = APPLICATION_CONTEXT ( 'configuration controlled 3d designs of mechanical parts and assemblies' ) ;
#131 = DIRECTION ( 'NONE',  ( 1.000000000000000000, 0.000000000000000000, 0.000000000000000000 ) ) ;
#132 = DIRECTION ( 'NONE',  ( -1.000000000000000000, 0.000000000000000000, 0.000000000000000000 ) ) ;
#133 = PERSON_AND_ORGANIZATION ( #66, #120 ) ;
#134 = CARTESIAN_POINT ( 'NONE',  ( 0.000000000000000000, 0.000000000000000000, 5.000000000000000000 ) ) ;
#135 = CARTESIAN_POINT ( 'NONE',  ( 6.000000000000000888, 7.347880794884120722E-16, 0.000000000000000000 ) ) ;
#136 = PERSON_AND_ORGANIZATION ( #66, #120 ) ;
#137 = CYLINDRICAL_SURFACE ( 'NONE', #13, 3.750000000000000000 ) ;
#138 = DATE_TIME_ROLE ( 'classification_date' ) ;
#139 = FACE_OUTER_BOUND ( 'NONE', #78, .T. ) ;
#140 = EDGE_CURVE ( 'NONE', #214, #67, #146, .T. ) ;
#141 = ORIENTED_EDGE ( 'NONE', *, *, #89, .F. ) ;
#142 = CARTESIAN_POINT ( 'NONE',  ( 0.000000000000000000, 0.000000000000000000, 0.000000000000000000 ) ) ;
#143 = DIRECTION ( 'NONE',  ( -1.000000000000000000, 0.000000000000000000, 0.000000000000000000 ) ) ;
#144 = PLANE ( 'NONE',  #159 ) ;
#145 = APPROVAL ( #182, 'NEURÈENÝ' ) ;
#146 = CIRCLE ( 'NONE', #45, 3.750000000000000000 ) ;
#147 = CARTESIAN_POINT ( 'NONE',  ( 0.000000000000000000, 0.000000000000000000, 200.0000000000000000 ) ) ;
#148 = LOCAL_TIME ( 15, 49, 43.00000000000000000, #250 ) ;
#149 = VERTEX_POINT ( 'NONE', #247 ) ;
#150 = PRODUCT_DEFINITION_SHAPE ( 'NONE', 'NONE',  #220 ) ;
#151 = DIRECTION ( 'NONE',  ( 1.000000000000000000, 0.000000000000000000, -0.000000000000000000 ) ) ;
#152 = ADVANCED_FACE ( 'NONE', ( #176 ), #34, .T. ) ;
#153 = VECTOR ( 'NONE', #127, 1000.000000000000000 ) ;
#154 = DIRECTION ( 'NONE',  ( -1.000000000000000000, 0.000000000000000000, 0.000000000000000000 ) ) ;
#155 = LOCAL_TIME ( 15, 49, 43.00000000000000000, #205 ) ;
#156 = DIRECTION ( 'NONE',  ( 0.000000000000000000, 0.000000000000000000, 1.000000000000000000 ) ) ;
#157 = LINE ( 'NONE', #90, #165 ) ;
#158 = ORIENTED_EDGE ( 'NONE', *, *, #89, .T. ) ;
#159 = AXIS2_PLACEMENT_3D ( 'NONE', #110, #163, #197 ) ;
#160 = CC_DESIGN_DATE_AND_TIME_ASSIGNMENT ( #64, #138, ( #43 ) ) ;
#161 = COORDINATED_UNIVERSAL_TIME_OFFSET ( 1, 0, .AHEAD. ) ;
#162 = UNCERTAINTY_MEASURE_WITH_UNIT (LENGTH_MEASURE( 1.000000000000000082E-05 ), #97, 'distance_accuracy_value', 'NONE');
#163 = DIRECTION ( 'NONE',  ( 0.000000000000000000, 0.000000000000000000, 1.000000000000000000 ) ) ;
#164 = MECHANICAL_CONTEXT ( 'NONE', #130, 'mechanical' ) ;
#165 = VECTOR ( 'NONE', #245, 1000.000000000000000 ) ;
#166 = DIRECTION ( 'NONE',  ( 1.000000000000000000, 0.000000000000000000, 0.000000000000000000 ) ) ;
#167 = CARTESIAN_POINT ( 'NONE',  ( 0.000000000000000000, 0.000000000000000000, 200.0000000000000000 ) ) ;
#168 = CIRCLE ( 'NONE', #26, 6.000000000000000888 ) ;
#169 = CC_DESIGN_PERSON_AND_ORGANIZATION_ASSIGNMENT ( #133, #114, ( #220 ) ) ;
#170 = ORIENTED_EDGE ( 'NONE', *, *, #111, .F. ) ;
#171 = FACE_OUTER_BOUND ( 'NONE', #211, .T. ) ;
#172 = CARTESIAN_POINT ( 'NONE',  ( 0.000000000000000000, 0.000000000000000000, 0.000000000000000000 ) ) ;
#173 = DIRECTION ( 'NONE',  ( -0.000000000000000000, -0.000000000000000000, -1.000000000000000000 ) ) ;
#174 = ORIENTED_EDGE ( 'NONE', *, *, #82, .F. ) ;
#175 = AXIS2_PLACEMENT_3D ( 'NONE', #172, #215, #166 ) ;
#176 = FACE_OUTER_BOUND ( 'NONE', #73, .T. ) ;
#177 = DIRECTION ( 'NONE',  ( -0.000000000000000000, -0.000000000000000000, -1.000000000000000000 ) ) ;
#178 = ORIENTED_EDGE ( 'NONE', *, *, #140, .F. ) ;
#179 = ADVANCED_FACE ( 'NONE', ( #72 ), #188, .T. ) ;
#180 = ORIENTED_EDGE ( 'NONE', *, *, #235, .F. ) ;
#181 = CARTESIAN_POINT ( 'NONE',  ( 0.000000000000000000, 0.000000000000000000, 200.0000000000000000 ) ) ;
#182 = APPROVAL_STATUS ( 'not_yet_approved' ) ;
#183 = APPROVAL_PERSON_ORGANIZATION ( #69, #226, #88 ) ;
#184 = APPROVAL_ROLE ( '' ) ;
#185 = ORIENTED_EDGE ( 'NONE', *, *, #5, .F. ) ;
#186 = CALENDAR_DATE ( 2023, 13, 2 ) ;
#187 = VECTOR ( 'NONE', #68, 1000.000000000000000 ) ;
#188 = PLANE ( 'NONE',  #15 ) ;
#189 = AXIS2_PLACEMENT_3D ( 'NONE', #10, #79, #143 ) ;
#190 = EDGE_CURVE ( 'NONE', #67, #214, #36, .T. ) ;
#191 = EDGE_LOOP ( 'NONE', ( #50, #174 ) ) ;
#192 = CARTESIAN_POINT ( 'NONE',  ( -6.000000000000000888, 0.000000000000000000, 0.000000000000000000 ) ) ;
#193 = LOCAL_TIME ( 15, 49, 43.00000000000000000, #42 ) ;
#194 = EDGE_CURVE ( 'NONE', #113, #149, #2, .T. ) ;
#195 = CALENDAR_DATE ( 2023, 13, 2 ) ;
#196 = COORDINATED_UNIVERSAL_TIME_OFFSET ( 1, 0, .AHEAD. ) ;
#197 = DIRECTION ( 'NONE',  ( 1.000000000000000000, 0.000000000000000000, -0.000000000000000000 ) ) ;
#198 = ORIENTED_EDGE ( 'NONE', *, *, #100, .T. ) ;
#199 = CARTESIAN_POINT ( 'NONE',  ( 6.000000000000000888, 7.347880794884120722E-16, 5.000000000000000000 ) ) ;
#200 = CALENDAR_DATE ( 2023, 13, 2 ) ;
#201 = VERTEX_POINT ( 'NONE', #192 ) ;
#202 = CC_DESIGN_PERSON_AND_ORGANIZATION_ASSIGNMENT ( #103, #253, ( #116 ) ) ;
#203 = AXIS2_PLACEMENT_3D ( 'NONE', #243, #60, #57 ) ;
#204 = CARTESIAN_POINT ( 'NONE',  ( 0.000000000000000000, 0.000000000000000000, 5.000000000000000000 ) ) ;
#205 = COORDINATED_UNIVERSAL_TIME_OFFSET ( 1, 0, .AHEAD. ) ;
#206 = CARTESIAN_POINT ( 'NONE',  ( 0.000000000000000000, 0.000000000000000000, 5.000000000000000000 ) ) ;
#207 = CARTESIAN_POINT ( 'NONE',  ( 3.750000000000000000, 4.592425496802573972E-16, 5.000000000000000000 ) ) ;
#208 = AXIS2_PLACEMENT_3D ( 'NONE', #167, #224, #227 ) ;
#209 = EDGE_LOOP ( 'NONE', ( #180, #170, #158, #107 ) ) ;
#210 = AXIS2_PLACEMENT_3D ( 'NONE', #206, #105, #254 ) ;
#211 = EDGE_LOOP ( 'NONE', ( #128, #233 ) ) ;
#212 = EDGE_CURVE ( 'NONE', #24, #201, #168, .T. ) ;
#213 = APPLICATION_PROTOCOL_DEFINITION ( 'international standard', 'config_control_design', 1994, #130 ) ;
#214 = VERTEX_POINT ( 'NONE', #28 ) ;
#215 = DIRECTION ( 'NONE',  ( 0.000000000000000000, 0.000000000000000000, 1.000000000000000000 ) ) ;
#216 = CARTESIAN_POINT ( 'NONE',  ( -6.000000000000000888, 0.000000000000000000, 5.000000000000000000 ) ) ;
#217 = CIRCLE ( 'NONE', #1, 3.750000000000000000 ) ;
#218 = CC_DESIGN_APPROVAL ( #145, ( #116 ) ) ;
#219 = DIRECTION ( 'NONE',  ( 0.000000000000000000, 0.000000000000000000, 1.000000000000000000 ) ) ;
#220 = PRODUCT_DEFINITION ( 'NEZNÁMÝ', '', #116, #124 ) ;
#221 = CARTESIAN_POINT ( 'NONE',  ( 0.000000000000000000, 0.000000000000000000, 200.0000000000000000 ) ) ;
#222 = VECTOR ( 'NONE', #173, 1000.000000000000000 ) ;
#223 = DIRECTION ( 'NONE',  ( -1.000000000000000000, 0.000000000000000000, 0.000000000000000000 ) ) ;
#224 = DIRECTION ( 'NONE',  ( 0.000000000000000000, 0.000000000000000000, 1.000000000000000000 ) ) ;
#225 =( GEOMETRIC_REPRESENTATION_CONTEXT ( 3 ) GLOBAL_UNCERTAINTY_ASSIGNED_CONTEXT ( ( #162 ) ) GLOBAL_UNIT_ASSIGNED_CONTEXT ( ( #97, #11, #94 ) ) REPRESENTATION_CONTEXT ( 'NONE', 'WORKASPACE' ) );
#226 = APPROVAL ( #104, 'NEURÈENÝ' ) ;
#227 = DIRECTION ( 'NONE',  ( 1.000000000000000000, 0.000000000000000000, 0.000000000000000000 ) ) ;
#228 = PERSON_AND_ORGANIZATION ( #66, #120 ) ;
#229 = APPROVAL_DATE_TIME ( #44, #226 ) ;
#230 = APPROVAL ( #33, 'NEURÈENÝ' ) ;
#231 = ADVANCED_FACE ( 'NONE', ( #106, #171 ), #4, .T. ) ;
#232 = CC_DESIGN_SECURITY_CLASSIFICATION ( #43, ( #116 ) ) ;
#233 = ORIENTED_EDGE ( 'NONE', *, *, #194, .T. ) ;
#234 = DIRECTION ( 'NONE',  ( 1.000000000000000000, 0.000000000000000000, 0.000000000000000000 ) ) ;
#235 = EDGE_CURVE ( 'NONE', #113, #24, #157, .T. ) ;
#236 = CIRCLE ( 'NONE', #63, 6.000000000000000888 ) ;
#237 = ORIENTED_EDGE ( 'NONE', *, *, #235, .T. ) ;
#238 = MANIFOLD_SOLID_BREP ( 'Pøidat vysunutím3', #39 ) ;
#239 = DIRECTION ( 'NONE',  ( 1.000000000000000000, 0.000000000000000000, 0.000000000000000000 ) ) ;
#240 = ORIENTED_EDGE ( 'NONE', *, *, #190, .T. ) ;
#241 = CARTESIAN_POINT ( 'NONE',  ( 0.000000000000000000, 0.000000000000000000, 0.000000000000000000 ) ) ;
#242 = VERTEX_POINT ( 'NONE', #96 ) ;
#243 = CARTESIAN_POINT ( 'NONE',  ( 0.000000000000000000, 0.000000000000000000, 5.000000000000000000 ) ) ;
#244 = CIRCLE ( 'NONE', #6, 6.000000000000000888 ) ;
#245 = DIRECTION ( 'NONE',  ( -0.000000000000000000, -0.000000000000000000, -1.000000000000000000 ) ) ;
#246 = PERSON_AND_ORGANIZATION ( #66, #120 ) ;
#247 = CARTESIAN_POINT ( 'NONE',  ( -6.000000000000000888, 0.000000000000000000, 5.000000000000000000 ) ) ;
#248 = EDGE_CURVE ( 'NONE', #201, #24, #236, .T. ) ;
#249 = ORIENTED_EDGE ( 'NONE', *, *, #140, .T. ) ;
#250 = COORDINATED_UNIVERSAL_TIME_OFFSET ( 1, 0, .AHEAD. ) ;
#251 = CARTESIAN_POINT ( 'NONE',  ( 3.750000000000000000, 4.592425496802573972E-16, 200.0000000000000000 ) ) ;
#252 = FACE_OUTER_BOUND ( 'NONE', #32, .T. ) ;
#253 = PERSON_AND_ORGANIZATION_ROLE ( 'creator' ) ;
#254 = DIRECTION ( 'NONE',  ( 1.000000000000000000, 0.000000000000000000, -0.000000000000000000 ) ) ;
#255 = CARTESIAN_POINT ( 'NONE',  ( 0.000000000000000000, 0.000000000000000000, 200.0000000000000000 ) ) ;
ENDSEC;
END-ISO-10303-21;
