ISO-10303-21;
HEADER;
FILE_DESCRIPTION (( 'STEP AP203' ),
    '1' );
FILE_NAME ('a8aa.STEP',
    '2022-07-07T17:39:19',
    ( '' ),
    ( '' ),
    'SwSTEP 2.0',
    'SolidWorks 2019',
    '' );
FILE_SCHEMA (( 'CONFIG_CONTROL_DESIGN' ));
ENDSEC;

DATA;
#1 = AXIS2_PLACEMENT_3D ( 'NONE', #63, #45, #5 ) ;
#2 = COORDINATED_UNIVERSAL_TIME_OFFSET ( 1, 0, .AHEAD. ) ;
#3 = CARTESIAN_POINT ( 'NONE',  ( 0.000000000000000000, 0.000000000000000000, 5.000000000000000000 ) ) ;
#4 = CARTESIAN_POINT ( 'NONE',  ( -3.100000000000000089, 0.000000000000000000, 5.000000000000000000 ) ) ;
#5 = DIRECTION ( 'NONE',  ( -1.000000000000000000, 0.000000000000000000, 0.000000000000000000 ) ) ;
#6 = COORDINATED_UNIVERSAL_TIME_OFFSET ( 1, 0, .AHEAD. ) ;
#7 = PERSON_AND_ORGANIZATION ( #162, #139 ) ;
#8 = CARTESIAN_POINT ( 'NONE',  ( 0.000000000000000000, 0.000000000000000000, 5.000000000000000000 ) ) ;
#9 = CARTESIAN_POINT ( 'NONE',  ( 0.000000000000000000, 0.000000000000000000, 205.0000000000000284 ) ) ;
#10 = PERSON_AND_ORGANIZATION ( #162, #139 ) ;
#11 = APPROVAL_ROLE ( '' ) ;
#12 = FACE_OUTER_BOUND ( 'NONE', #140, .T. ) ;
#13 = ORIENTED_EDGE ( 'NONE', *, *, #27, .T. ) ;
#14 = ORIENTED_EDGE ( 'NONE', *, *, #15, .T. ) ;
#15 = EDGE_CURVE ( 'NONE', #216, #100, #129, .T. ) ;
#16 = ORIENTED_EDGE ( 'NONE', *, *, #242, .F. ) ;
#17 = CARTESIAN_POINT ( 'NONE',  ( 0.000000000000000000, 0.000000000000000000, 0.000000000000000000 ) ) ;
#18 = ORIENTED_EDGE ( 'NONE', *, *, #200, .T. ) ;
#19 = CIRCLE ( 'NONE', #172, 6.000000000000000888 ) ;
#20 = CARTESIAN_POINT ( 'NONE',  ( 0.000000000000000000, 0.000000000000000000, 205.0000000000000284 ) ) ;
#21 = CARTESIAN_POINT ( 'NONE',  ( 0.000000000000000000, 0.000000000000000000, 5.000000000000000000 ) ) ;
#22 = CARTESIAN_POINT ( 'NONE',  ( 0.000000000000000000, 0.000000000000000000, 205.0000000000000284 ) ) ;
#23 = FACE_OUTER_BOUND ( 'NONE', #78, .T. ) ;
#24 = DIRECTION ( 'NONE',  ( 0.000000000000000000, 0.000000000000000000, 1.000000000000000000 ) ) ;
#25 = APPROVAL ( #47, 'NEURÈENÝ' ) ;
#26 = APPLICATION_PROTOCOL_DEFINITION ( 'international standard', 'config_control_design', 1994, #244 ) ;
#27 = EDGE_CURVE ( 'NONE', #156, #32, #31, .T. ) ;
#28 = APPROVAL_STATUS ( 'not_yet_approved' ) ;
#29 = AXIS2_PLACEMENT_3D ( 'NONE', #203, #169, #106 ) ;
#30 = EDGE_LOOP ( 'NONE', ( #97, #230, #175, #74 ) ) ;
#31 = CIRCLE ( 'NONE', #180, 3.100000000000000089 ) ;
#32 = VERTEX_POINT ( 'NONE', #197 ) ;
#33 = ORIENTED_EDGE ( 'NONE', *, *, #160, .F. ) ;
#34 = ORIENTED_EDGE ( 'NONE', *, *, #239, .F. ) ;
#35 = AXIS2_PLACEMENT_3D ( 'NONE', #221, #87, #167 ) ;
#36 = ORIENTED_EDGE ( 'NONE', *, *, #62, .F. ) ;
#37 = UNCERTAINTY_MEASURE_WITH_UNIT (LENGTH_MEASURE( 1.000000000000000082E-05 ), #168, 'distance_accuracy_value', 'NONE');
#38 = ADVANCED_FACE ( 'NONE', ( #23 ), #105, .F. ) ;
#39 = CYLINDRICAL_SURFACE ( 'NONE', #1, 6.000000000000000888 ) ;
#40 = DIRECTION ( 'NONE',  ( 1.000000000000000000, 0.000000000000000000, 0.000000000000000000 ) ) ;
#41 = PLANE ( 'NONE',  #46 ) ;
#42 = FACE_OUTER_BOUND ( 'NONE', #217, .T. ) ;
#43 = COORDINATED_UNIVERSAL_TIME_OFFSET ( 1, 0, .AHEAD. ) ;
#44 = AXIS2_PLACEMENT_3D ( 'NONE', #22, #207, #249 ) ;
#45 = DIRECTION ( 'NONE',  ( -0.000000000000000000, -0.000000000000000000, -1.000000000000000000 ) ) ;
#46 = AXIS2_PLACEMENT_3D ( 'NONE', #3, #145, #218 ) ;
#47 = APPROVAL_STATUS ( 'not_yet_approved' ) ;
#48 = DIRECTION ( 'NONE',  ( 1.000000000000000000, 0.000000000000000000, 0.000000000000000000 ) ) ;
#49 =( NAMED_UNIT ( * ) PLANE_ANGLE_UNIT ( ) SI_UNIT ( $, .RADIAN. ) );
#50 = CARTESIAN_POINT ( 'NONE',  ( 0.000000000000000000, 0.000000000000000000, 0.000000000000000000 ) ) ;
#51 = CARTESIAN_POINT ( 'NONE',  ( 0.000000000000000000, 0.000000000000000000, 5.000000000000000000 ) ) ;
#52 = CARTESIAN_POINT ( 'NONE',  ( -3.100000000000000089, 0.000000000000000000, 205.0000000000000284 ) ) ;
#53 = APPLICATION_PROTOCOL_DEFINITION ( 'international standard', 'config_control_design', 1994, #194 ) ;
#54 = EDGE_LOOP ( 'NONE', ( #33, #99, #159, #215 ) ) ;
#55 = EDGE_LOOP ( 'NONE', ( #34, #143, #56, #13 ) ) ;
#56 = ORIENTED_EDGE ( 'NONE', *, *, #229, .T. ) ;
#57 = CIRCLE ( 'NONE', #205, 6.000000000000000888 ) ;
#58 = MANIFOLD_SOLID_BREP ( 'Pøidat vysunutím3', #123 ) ;
#59 = COORDINATED_UNIVERSAL_TIME_OFFSET ( 1, 0, .AHEAD. ) ;
#60 = CARTESIAN_POINT ( 'NONE',  ( 6.000000000000000888, 7.347880794884120722E-16, 5.000000000000000000 ) ) ;
#61 = DATE_AND_TIME ( #66, #199 ) ;
#62 = EDGE_CURVE ( 'NONE', #138, #213, #178, .T. ) ;
#63 = CARTESIAN_POINT ( 'NONE',  ( 0.000000000000000000, 0.000000000000000000, 5.000000000000000000 ) ) ;
#64 = CARTESIAN_POINT ( 'NONE',  ( 0.000000000000000000, 0.000000000000000000, 205.0000000000000284 ) ) ;
#65 = DIRECTION ( 'NONE',  ( 1.000000000000000000, 0.000000000000000000, 0.000000000000000000 ) ) ;
#66 = CALENDAR_DATE ( 2022, 7, 7 ) ;
#67 = DIRECTION ( 'NONE',  ( 1.000000000000000000, 0.000000000000000000, 0.000000000000000000 ) ) ;
#68 = CYLINDRICAL_SURFACE ( 'NONE', #191, 6.000000000000000888 ) ;
#69 = PERSON_AND_ORGANIZATION ( #162, #139 ) ;
#70 = CARTESIAN_POINT ( 'NONE',  ( -6.000000000000000888, 0.000000000000000000, 5.000000000000000000 ) ) ;
#71 = ORIENTED_EDGE ( 'NONE', *, *, #27, .F. ) ;
#72 = CC_DESIGN_PERSON_AND_ORGANIZATION_ASSIGNMENT ( #183, #187, ( #98 ) ) ;
#73 = ORIENTED_EDGE ( 'NONE', *, *, #108, .F. ) ;
#74 = ORIENTED_EDGE ( 'NONE', *, *, #229, .F. ) ;
#75 =( GEOMETRIC_REPRESENTATION_CONTEXT ( 3 ) GLOBAL_UNCERTAINTY_ASSIGNED_CONTEXT ( ( #37 ) ) GLOBAL_UNIT_ASSIGNED_CONTEXT ( ( #168, #49, #133 ) ) REPRESENTATION_CONTEXT ( 'NONE', 'WORKASPACE' ) );
#76 = DATE_AND_TIME ( #184, #80 ) ;
#77 = ADVANCED_FACE ( 'NONE', ( #85, #125 ), #41, .T. ) ;
#78 = EDGE_LOOP ( 'NONE', ( #120, #158 ) ) ;
#79 = CIRCLE ( 'NONE', #247, 3.100000000000000089 ) ;
#80 = LOCAL_TIME ( 19, 39, 19.00000000000000000, #59 ) ;
#81 = DIRECTION ( 'NONE',  ( -0.000000000000000000, -0.000000000000000000, -1.000000000000000000 ) ) ;
#82 = DESIGN_CONTEXT ( 'detailed design', #194, 'design' ) ;
#83 = PERSON_AND_ORGANIZATION ( #162, #139 ) ;
#84 = DIRECTION ( 'NONE',  ( 0.000000000000000000, 0.000000000000000000, 1.000000000000000000 ) ) ;
#85 = FACE_BOUND ( 'NONE', #121, .T. ) ;
#86 = COORDINATED_UNIVERSAL_TIME_OFFSET ( 1, 0, .AHEAD. ) ;
#87 = DIRECTION ( 'NONE',  ( 0.000000000000000000, 0.000000000000000000, 1.000000000000000000 ) ) ;
#88 = DATE_TIME_ROLE ( 'classification_date' ) ;
#89 = LOCAL_TIME ( 19, 39, 19.00000000000000000, #6 ) ;
#90 = DIRECTION ( 'NONE',  ( -0.000000000000000000, -0.000000000000000000, -1.000000000000000000 ) ) ;
#91 = CC_DESIGN_DATE_AND_TIME_ASSIGNMENT ( #76, #88, ( #243 ) ) ;
#92 = CALENDAR_DATE ( 2022, 7, 7 ) ;
#93 = CARTESIAN_POINT ( 'NONE',  ( -3.100000000000000089, 0.000000000000000000, 205.0000000000000284 ) ) ;
#94 = CIRCLE ( 'NONE', #44, 3.100000000000000089 ) ;
#95 = LINE ( 'NONE', #52, #149 ) ;
#96 = ADVANCED_FACE ( 'NONE', ( #240 ), #39, .T. ) ;
#97 = ORIENTED_EDGE ( 'NONE', *, *, #208, .F. ) ;
#98 = PRODUCT_DEFINITION ( 'NEZNÁMÝ', '', #255, #82 ) ;
#99 = ORIENTED_EDGE ( 'NONE', *, *, #62, .T. ) ;
#100 = VERTEX_POINT ( 'NONE', #165 ) ;
#101 = CARTESIAN_POINT ( 'NONE',  ( -6.000000000000000888, 0.000000000000000000, 5.000000000000000000 ) ) ;
#102 = PRODUCT_DEFINITION_SHAPE ( 'NONE', 'NONE',  #98 ) ;
#103 = AXIS2_PLACEMENT_3D ( 'NONE', #210, #24, #65 ) ;
#104 = CC_DESIGN_APPROVAL ( #177, ( #255 ) ) ;
#105 = PLANE ( 'NONE',  #227 ) ;
#106 = DIRECTION ( 'NONE',  ( -1.000000000000000000, 0.000000000000000000, 0.000000000000000000 ) ) ;
#107 = CIRCLE ( 'NONE', #35, 6.000000000000000888 ) ;
#108 = EDGE_CURVE ( 'NONE', #32, #156, #254, .T. ) ;
#109 = DIRECTION ( 'NONE',  ( 1.000000000000000000, 0.000000000000000000, -0.000000000000000000 ) ) ;
#110 = DIRECTION ( 'NONE',  ( 0.000000000000000000, 0.000000000000000000, 1.000000000000000000 ) ) ;
#111 = DATE_AND_TIME ( #92, #89 ) ;
#112 = PERSON_AND_ORGANIZATION_ROLE ( 'classification_officer' ) ;
#113 = MECHANICAL_CONTEXT ( 'NONE', #244, 'mechanical' ) ;
#114 = CARTESIAN_POINT ( 'NONE',  ( 3.100000000000000089, 3.796405077356794918E-16, 205.0000000000000284 ) ) ;
#115 = DIRECTION ( 'NONE',  ( 1.000000000000000000, 0.000000000000000000, 0.000000000000000000 ) ) ;
#116 = CARTESIAN_POINT ( 'NONE',  ( 3.100000000000000089, 3.796405077356794918E-16, 205.0000000000000284 ) ) ;
#117 = DIRECTION ( 'NONE',  ( -0.000000000000000000, -0.000000000000000000, -1.000000000000000000 ) ) ;
#118 = APPROVAL_ROLE ( '' ) ;
#119 = CC_DESIGN_PERSON_AND_ORGANIZATION_ASSIGNMENT ( #7, #112, ( #243 ) ) ;
#120 = ORIENTED_EDGE ( 'NONE', *, *, #174, .F. ) ;
#121 = EDGE_LOOP ( 'NONE', ( #71, #73 ) ) ;
#122 = PRODUCT_RELATED_PRODUCT_CATEGORY ( 'detail', '', ( #144 ) ) ;
#123 = CLOSED_SHELL ( 'NONE', ( #127, #96, #252, #77, #38, #206, #137 ) ) ;
#124 = APPROVAL_DATE_TIME ( #179, #177 ) ;
#125 = FACE_OUTER_BOUND ( 'NONE', #232, .T. ) ;
#126 = FACE_OUTER_BOUND ( 'NONE', #30, .T. ) ;
#127 = ADVANCED_FACE ( 'NONE', ( #126 ), #202, .T. ) ;
#128 = CC_DESIGN_PERSON_AND_ORGANIZATION_ASSIGNMENT ( #10, #228, ( #144 ) ) ;
#129 = LINE ( 'NONE', #101, #134 ) ;
#130 = APPROVAL_DATE_TIME ( #61, #25 ) ;
#131 = CC_DESIGN_APPROVAL ( #25, ( #243 ) ) ;
#132 = CYLINDRICAL_SURFACE ( 'NONE', #157, 3.100000000000000089 ) ;
#133 =( NAMED_UNIT ( * ) SI_UNIT ( $, .STERADIAN. ) SOLID_ANGLE_UNIT ( ) );
#134 = VECTOR ( 'NONE', #253, 1000.000000000000000 ) ;
#135 = CC_DESIGN_SECURITY_CLASSIFICATION ( #243, ( #255 ) ) ;
#136 = PERSON_AND_ORGANIZATION ( #162, #139 ) ;
#137 = ADVANCED_FACE ( 'NONE', ( #42 ), #152, .T. ) ;
#138 = VERTEX_POINT ( 'NONE', #181 ) ;
#139 = ORGANIZATION ( 'NEURÈENÝ', 'NEURÈENÝ', '' ) ;
#140 = EDGE_LOOP ( 'NONE', ( #36, #16, #14, #233 ) ) ;
#141 = CC_DESIGN_PERSON_AND_ORGANIZATION_ASSIGNMENT ( #163, #236, ( #255 ) ) ;
#142 = VECTOR ( 'NONE', #90, 1000.000000000000000 ) ;
#143 = ORIENTED_EDGE ( 'NONE', *, *, #200, .F. ) ;
#144 = PRODUCT ( 'a8aa', 'a8aa', '', ( #113 ) ) ;
#145 = DIRECTION ( 'NONE',  ( 0.000000000000000000, 0.000000000000000000, 1.000000000000000000 ) ) ;
#146 = SHAPE_DEFINITION_REPRESENTATION ( #102, #186 ) ;
#147 = CC_DESIGN_DATE_AND_TIME_ASSIGNMENT ( #170, #246, ( #98 ) ) ;
#148 = DIRECTION ( 'NONE',  ( 0.000000000000000000, 0.000000000000000000, 1.000000000000000000 ) ) ;
#149 = VECTOR ( 'NONE', #117, 1000.000000000000000 ) ;
#150 = DIRECTION ( 'NONE',  ( -1.000000000000000000, 0.000000000000000000, 0.000000000000000000 ) ) ;
#151 = CARTESIAN_POINT ( 'NONE',  ( 0.000000000000000000, 0.000000000000000000, 0.000000000000000000 ) ) ;
#152 = PLANE ( 'NONE',  #155 ) ;
#153 = DIRECTION ( 'NONE',  ( 1.000000000000000000, 0.000000000000000000, 0.000000000000000000 ) ) ;
#154 = DIRECTION ( 'NONE',  ( 0.000000000000000000, 0.000000000000000000, 1.000000000000000000 ) ) ;
#155 = AXIS2_PLACEMENT_3D ( 'NONE', #20, #245, #109 ) ;
#156 = VERTEX_POINT ( 'NONE', #4 ) ;
#157 = AXIS2_PLACEMENT_3D ( 'NONE', #64, #225, #150 ) ;
#158 = ORIENTED_EDGE ( 'NONE', *, *, #248, .F. ) ;
#159 = ORIENTED_EDGE ( 'NONE', *, *, #248, .T. ) ;
#160 = EDGE_CURVE ( 'NONE', #138, #216, #107, .T. ) ;
#161 = PERSON_AND_ORGANIZATION ( #162, #139 ) ;
#162 = PERSON ( 'NEURÈENÝ', 'NEURÈENÝ', 'NEURÈENÝ', ('NEURÈENÝ'), ('NEURÈENÝ'), ('NEURÈENÝ') ) ;
#163 = PERSON_AND_ORGANIZATION ( #162, #139 ) ;
#164 = FACE_OUTER_BOUND ( 'NONE', #55, .T. ) ;
#165 = CARTESIAN_POINT ( 'NONE',  ( -6.000000000000000888, 0.000000000000000000, 0.000000000000000000 ) ) ;
#166 = APPROVAL_DATE_TIME ( #111, #185 ) ;
#167 = DIRECTION ( 'NONE',  ( 1.000000000000000000, 0.000000000000000000, 0.000000000000000000 ) ) ;
#168 =( LENGTH_UNIT ( ) NAMED_UNIT ( * ) SI_UNIT ( .MILLI., .METRE. ) );
#169 = DIRECTION ( 'NONE',  ( -0.000000000000000000, -0.000000000000000000, -1.000000000000000000 ) ) ;
#170 = DATE_AND_TIME ( #241, #220 ) ;
#171 = DIRECTION ( 'NONE',  ( -1.000000000000000000, 0.000000000000000000, 0.000000000000000000 ) ) ;
#172 = AXIS2_PLACEMENT_3D ( 'NONE', #51, #189, #153 ) ;
#173 = ORIENTED_EDGE ( 'NONE', *, *, #160, .T. ) ;
#174 = EDGE_CURVE ( 'NONE', #100, #213, #190, .T. ) ;
#175 = ORIENTED_EDGE ( 'NONE', *, *, #108, .T. ) ;
#176 = DIRECTION ( 'NONE',  ( 0.000000000000000000, 0.000000000000000000, 1.000000000000000000 ) ) ;
#177 = APPROVAL ( #226, 'NEURÈENÝ' ) ;
#178 = LINE ( 'NONE', #60, #234 ) ;
#179 = DATE_AND_TIME ( #238, #196 ) ;
#180 = AXIS2_PLACEMENT_3D ( 'NONE', #21, #110, #48 ) ;
#181 = CARTESIAN_POINT ( 'NONE',  ( 6.000000000000000888, 7.347880794884120722E-16, 5.000000000000000000 ) ) ;
#182 = DIRECTION ( 'NONE',  ( 1.000000000000000000, 0.000000000000000000, -0.000000000000000000 ) ) ;
#183 = PERSON_AND_ORGANIZATION ( #162, #139 ) ;
#184 = CALENDAR_DATE ( 2022, 7, 7 ) ;
#185 = APPROVAL ( #28, 'NEURÈENÝ' ) ;
#186 = ADVANCED_BREP_SHAPE_REPRESENTATION ( 'a8aa', ( #58, #103 ), #75 ) ;
#187 = PERSON_AND_ORGANIZATION_ROLE ( 'creator' ) ;
#188 = LINE ( 'NONE', #116, #142 ) ;
#189 = DIRECTION ( 'NONE',  ( 0.000000000000000000, 0.000000000000000000, 1.000000000000000000 ) ) ;
#190 = CIRCLE ( 'NONE', #195, 6.000000000000000888 ) ;
#191 = AXIS2_PLACEMENT_3D ( 'NONE', #8, #212, #171 ) ;
#192 = CARTESIAN_POINT ( 'NONE',  ( 6.000000000000000888, 7.347880794884120722E-16, 0.000000000000000000 ) ) ;
#193 = VERTEX_POINT ( 'NONE', #114 ) ;
#194 = APPLICATION_CONTEXT ( 'configuration controlled 3d designs of mechanical parts and assemblies' ) ;
#195 = AXIS2_PLACEMENT_3D ( 'NONE', #50, #209, #223 ) ;
#196 = LOCAL_TIME ( 19, 39, 19.00000000000000000, #2 ) ;
#197 = CARTESIAN_POINT ( 'NONE',  ( 3.100000000000000089, 3.796405077356794918E-16, 5.000000000000000000 ) ) ;
#198 = APPROVAL_PERSON_ORGANIZATION ( #136, #185, #118 ) ;
#199 = LOCAL_TIME ( 19, 39, 19.00000000000000000, #43 ) ;
#200 = EDGE_CURVE ( 'NONE', #251, #193, #79, .T. ) ;
#201 = ORIENTED_EDGE ( 'NONE', *, *, #242, .T. ) ;
#202 = CYLINDRICAL_SURFACE ( 'NONE', #29, 3.100000000000000089 ) ;
#203 = CARTESIAN_POINT ( 'NONE',  ( 0.000000000000000000, 0.000000000000000000, 205.0000000000000284 ) ) ;
#204 = SECURITY_CLASSIFICATION_LEVEL ( 'unclassified' ) ;
#205 = AXIS2_PLACEMENT_3D ( 'NONE', #151, #154, #115 ) ;
#206 = ADVANCED_FACE ( 'NONE', ( #164 ), #132, .T. ) ;
#207 = DIRECTION ( 'NONE',  ( 0.000000000000000000, 0.000000000000000000, 1.000000000000000000 ) ) ;
#208 = EDGE_CURVE ( 'NONE', #193, #251, #94, .T. ) ;
#209 = DIRECTION ( 'NONE',  ( 0.000000000000000000, 0.000000000000000000, 1.000000000000000000 ) ) ;
#210 = CARTESIAN_POINT ( 'NONE',  ( 0.000000000000000000, 0.000000000000000000, 0.000000000000000000 ) ) ;
#211 = CC_DESIGN_PERSON_AND_ORGANIZATION_ASSIGNMENT ( #83, #222, ( #255 ) ) ;
#212 = DIRECTION ( 'NONE',  ( -0.000000000000000000, -0.000000000000000000, -1.000000000000000000 ) ) ;
#213 = VERTEX_POINT ( 'NONE', #192 ) ;
#214 = AXIS2_PLACEMENT_3D ( 'NONE', #219, #148, #40 ) ;
#215 = ORIENTED_EDGE ( 'NONE', *, *, #15, .F. ) ;
#216 = VERTEX_POINT ( 'NONE', #70 ) ;
#217 = EDGE_LOOP ( 'NONE', ( #18, #250 ) ) ;
#218 = DIRECTION ( 'NONE',  ( 1.000000000000000000, 0.000000000000000000, -0.000000000000000000 ) ) ;
#219 = CARTESIAN_POINT ( 'NONE',  ( 0.000000000000000000, 0.000000000000000000, 5.000000000000000000 ) ) ;
#220 = LOCAL_TIME ( 19, 39, 19.00000000000000000, #86 ) ;
#221 = CARTESIAN_POINT ( 'NONE',  ( 0.000000000000000000, 0.000000000000000000, 5.000000000000000000 ) ) ;
#222 = PERSON_AND_ORGANIZATION_ROLE ( 'creator' ) ;
#223 = DIRECTION ( 'NONE',  ( 1.000000000000000000, 0.000000000000000000, 0.000000000000000000 ) ) ;
#224 = APPROVAL_PERSON_ORGANIZATION ( #69, #177, #11 ) ;
#225 = DIRECTION ( 'NONE',  ( -0.000000000000000000, -0.000000000000000000, -1.000000000000000000 ) ) ;
#226 = APPROVAL_STATUS ( 'not_yet_approved' ) ;
#227 = AXIS2_PLACEMENT_3D ( 'NONE', #17, #176, #182 ) ;
#228 = PERSON_AND_ORGANIZATION_ROLE ( 'design_owner' ) ;
#229 = EDGE_CURVE ( 'NONE', #251, #156, #95, .T. ) ;
#230 = ORIENTED_EDGE ( 'NONE', *, *, #239, .T. ) ;
#231 = CC_DESIGN_APPROVAL ( #185, ( #98 ) ) ;
#232 = EDGE_LOOP ( 'NONE', ( #201, #173 ) ) ;
#233 = ORIENTED_EDGE ( 'NONE', *, *, #174, .T. ) ;
#234 = VECTOR ( 'NONE', #81, 1000.000000000000000 ) ;
#235 = APPROVAL_PERSON_ORGANIZATION ( #161, #25, #237 ) ;
#236 = PERSON_AND_ORGANIZATION_ROLE ( 'design_supplier' ) ;
#237 = APPROVAL_ROLE ( '' ) ;
#238 = CALENDAR_DATE ( 2022, 7, 7 ) ;
#239 = EDGE_CURVE ( 'NONE', #193, #32, #188, .T. ) ;
#240 = FACE_OUTER_BOUND ( 'NONE', #54, .T. ) ;
#241 = CALENDAR_DATE ( 2022, 7, 7 ) ;
#242 = EDGE_CURVE ( 'NONE', #216, #138, #19, .T. ) ;
#243 = SECURITY_CLASSIFICATION ( '', '', #204 ) ;
#244 = APPLICATION_CONTEXT ( 'configuration controlled 3d designs of mechanical parts and assemblies' ) ;
#245 = DIRECTION ( 'NONE',  ( 0.000000000000000000, 0.000000000000000000, 1.000000000000000000 ) ) ;
#246 = DATE_TIME_ROLE ( 'creation_date' ) ;
#247 = AXIS2_PLACEMENT_3D ( 'NONE', #9, #84, #67 ) ;
#248 = EDGE_CURVE ( 'NONE', #213, #100, #57, .T. ) ;
#249 = DIRECTION ( 'NONE',  ( 1.000000000000000000, 0.000000000000000000, 0.000000000000000000 ) ) ;
#250 = ORIENTED_EDGE ( 'NONE', *, *, #208, .T. ) ;
#251 = VERTEX_POINT ( 'NONE', #93 ) ;
#252 = ADVANCED_FACE ( 'NONE', ( #12 ), #68, .T. ) ;
#253 = DIRECTION ( 'NONE',  ( -0.000000000000000000, -0.000000000000000000, -1.000000000000000000 ) ) ;
#254 = CIRCLE ( 'NONE', #214, 3.100000000000000089 ) ;
#255 = PRODUCT_DEFINITION_FORMATION_WITH_SPECIFIED_SOURCE ( 'LIBOVOLNÝ', '', #144, .NOT_KNOWN. ) ;
ENDSEC;
END-ISO-10303-21;
