ISO-10303-21;
HEADER;
FILE_DESCRIPTION (( 'STEP AP203' ),
    '1' );
FILE_NAME ('f732.STEP',
    '2022-07-07T17:55:40',
    ( '' ),
    ( '' ),
    'SwSTEP 2.0',
    'SolidWorks 2019',
    '' );
FILE_SCHEMA (( 'CONFIG_CONTROL_DESIGN' ));
ENDSEC;

DATA;
#1 = CALENDAR_DATE ( 2022, 7, 7 ) ;
#2 = PRODUCT_RELATED_PRODUCT_CATEGORY ( 'detail', '', ( #28 ) ) ;
#3 = DIRECTION ( 'NONE',  ( -0.000000000000000000, -0.000000000000000000, -1.000000000000000000 ) ) ;
#4 = EDGE_CURVE ( 'NONE', #251, #184, #166, .T. ) ;
#5 = VECTOR ( 'NONE', #3, 1000.000000000000000 ) ;
#6 = CARTESIAN_POINT ( 'NONE',  ( -1.500000000000000222, 0.000000000000000000, 3.000000000000000000 ) ) ;
#7 = PLANE ( 'NONE',  #209 ) ;
#8 = DIRECTION ( 'NONE',  ( 1.000000000000000000, 0.000000000000000000, 0.000000000000000000 ) ) ;
#9 = CC_DESIGN_PERSON_AND_ORGANIZATION_ASSIGNMENT ( #213, #212, ( #28 ) ) ;
#10 = ORIENTED_EDGE ( 'NONE', *, *, #136, .T. ) ;
#11 = CARTESIAN_POINT ( 'NONE',  ( 0.000000000000000000, 0.000000000000000000, 3.000000000000000000 ) ) ;
#12 = PLANE ( 'NONE',  #243 ) ;
#13 = APPROVAL_PERSON_ORGANIZATION ( #22, #205, #151 ) ;
#14 = LINE ( 'NONE', #45, #234 ) ;
#15 = EDGE_LOOP ( 'NONE', ( #186, #225, #91, #36 ) ) ;
#16 = DATE_AND_TIME ( #119, #229 ) ;
#17 = EDGE_CURVE ( 'NONE', #184, #227, #14, .T. ) ;
#18 = CALENDAR_DATE ( 2022, 7, 7 ) ;
#19 = CC_DESIGN_SECURITY_CLASSIFICATION ( #42, ( #153 ) ) ;
#20 = PERSON_AND_ORGANIZATION ( #84, #118 ) ;
#21 = PERSON_AND_ORGANIZATION ( #84, #118 ) ;
#22 = PERSON_AND_ORGANIZATION ( #84, #118 ) ;
#23 = AXIS2_PLACEMENT_3D ( 'NONE', #220, #128, #8 ) ;
#24 = DIRECTION ( 'NONE',  ( 0.000000000000000000, 0.000000000000000000, 1.000000000000000000 ) ) ;
#25 = EDGE_CURVE ( 'NONE', #253, #228, #98, .T. ) ;
#26 = CARTESIAN_POINT ( 'NONE',  ( 3.000000000000000444, 3.673940397442060361E-16, 3.000000000000000000 ) ) ;
#27 = CARTESIAN_POINT ( 'NONE',  ( 0.000000000000000000, 0.000000000000000000, 3.000000000000000000 ) ) ;
#28 = PRODUCT ( 'f732', 'f732', '', ( #255 ) ) ;
#29 = CYLINDRICAL_SURFACE ( 'NONE', #167, 1.500000000000000222 ) ;
#30 = DIRECTION ( 'NONE',  ( 1.000000000000000000, 0.000000000000000000, 0.000000000000000000 ) ) ;
#31 = CYLINDRICAL_SURFACE ( 'NONE', #46, 3.000000000000000444 ) ;
#32 = ORIENTED_EDGE ( 'NONE', *, *, #58, .F. ) ;
#33 = DIRECTION ( 'NONE',  ( 1.000000000000000000, 0.000000000000000000, -0.000000000000000000 ) ) ;
#34 = DATE_AND_TIME ( #76, #142 ) ;
#35 = PERSON_AND_ORGANIZATION ( #84, #118 ) ;
#36 = ORIENTED_EDGE ( 'NONE', *, *, #237, .T. ) ;
#37 = COORDINATED_UNIVERSAL_TIME_OFFSET ( 1, 0, .AHEAD. ) ;
#38 = APPLICATION_CONTEXT ( 'configuration controlled 3d designs of mechanical parts and assemblies' ) ;
#39 =( NAMED_UNIT ( * ) PLANE_ANGLE_UNIT ( ) SI_UNIT ( $, .RADIAN. ) );
#40 = AXIS2_PLACEMENT_3D ( 'NONE', #125, #110, #48 ) ;
#41 = FACE_OUTER_BOUND ( 'NONE', #168, .T. ) ;
#42 = SECURITY_CLASSIFICATION ( '', '', #70 ) ;
#43 = CC_DESIGN_PERSON_AND_ORGANIZATION_ASSIGNMENT ( #73, #116, ( #153 ) ) ;
#44 = ORIENTED_EDGE ( 'NONE', *, *, #58, .T. ) ;
#45 = CARTESIAN_POINT ( 'NONE',  ( 1.500000000000000222, 1.836970198721030181E-16, 503.0000000000000000 ) ) ;
#46 = AXIS2_PLACEMENT_3D ( 'NONE', #247, #89, #159 ) ;
#47 = AXIS2_PLACEMENT_3D ( 'NONE', #145, #181, #219 ) ;
#48 = DIRECTION ( 'NONE',  ( 1.000000000000000000, 0.000000000000000000, 0.000000000000000000 ) ) ;
#49 = CARTESIAN_POINT ( 'NONE',  ( -3.000000000000000444, 0.000000000000000000, 3.000000000000000000 ) ) ;
#50 = ORIENTED_EDGE ( 'NONE', *, *, #136, .F. ) ;
#51 = ADVANCED_FACE ( 'NONE', ( #109 ), #31, .T. ) ;
#52 = DATE_AND_TIME ( #18, #196 ) ;
#53 = ORIENTED_EDGE ( 'NONE', *, *, #17, .T. ) ;
#54 = APPROVAL_STATUS ( 'not_yet_approved' ) ;
#55 = EDGE_LOOP ( 'NONE', ( #50, #143, #182, #199 ) ) ;
#56 = PRODUCT_DEFINITION ( 'NEZNÁMÝ', '', #153, #246 ) ;
#57 = APPROVAL_DATE_TIME ( #252, #250 ) ;
#58 = EDGE_CURVE ( 'NONE', #227, #161, #114, .T. ) ;
#59 = CARTESIAN_POINT ( 'NONE',  ( -3.000000000000000444, 0.000000000000000000, 3.000000000000000000 ) ) ;
#60 = DIRECTION ( 'NONE',  ( 1.000000000000000000, 0.000000000000000000, 0.000000000000000000 ) ) ;
#61 = CYLINDRICAL_SURFACE ( 'NONE', #102, 1.500000000000000222 ) ;
#62 = ADVANCED_FACE ( 'NONE', ( #130 ), #217, .T. ) ;
#63 = EDGE_LOOP ( 'NONE', ( #170, #115, #92, #189 ) ) ;
#64 = ADVANCED_FACE ( 'NONE', ( #202 ), #12, .T. ) ;
#65 = CARTESIAN_POINT ( 'NONE',  ( 3.000000000000000444, 3.673940397442060361E-16, 3.000000000000000000 ) ) ;
#66 = CIRCLE ( 'NONE', #146, 3.000000000000000444 ) ;
#67 = VERTEX_POINT ( 'NONE', #65 ) ;
#68 = DIRECTION ( 'NONE',  ( 1.000000000000000000, 0.000000000000000000, 0.000000000000000000 ) ) ;
#69 = ORIENTED_EDGE ( 'NONE', *, *, #25, .F. ) ;
#70 = SECURITY_CLASSIFICATION_LEVEL ( 'unclassified' ) ;
#71 = LOCAL_TIME ( 19, 55, 40.00000000000000000, #248 ) ;
#72 = ORIENTED_EDGE ( 'NONE', *, *, #144, .F. ) ;
#73 = PERSON_AND_ORGANIZATION ( #84, #118 ) ;
#74 = PERSON_AND_ORGANIZATION_ROLE ( 'design_supplier' ) ;
#75 = AXIS2_PLACEMENT_3D ( 'NONE', #96, #154, #188 ) ;
#76 = CALENDAR_DATE ( 2022, 7, 7 ) ;
#77 = DIRECTION ( 'NONE',  ( -0.000000000000000000, -0.000000000000000000, -1.000000000000000000 ) ) ;
#78 = EDGE_CURVE ( 'NONE', #184, #251, #194, .T. ) ;
#79 = DIRECTION ( 'NONE',  ( -0.000000000000000000, -0.000000000000000000, -1.000000000000000000 ) ) ;
#80 = DIRECTION ( 'NONE',  ( -1.000000000000000000, 0.000000000000000000, 0.000000000000000000 ) ) ;
#81 = FACE_OUTER_BOUND ( 'NONE', #15, .T. ) ;
#82 = EDGE_LOOP ( 'NONE', ( #211, #32 ) ) ;
#83 = DIRECTION ( 'NONE',  ( 0.000000000000000000, 0.000000000000000000, 1.000000000000000000 ) ) ;
#84 = PERSON ( 'NEURÈENÝ', 'NEURÈENÝ', 'NEURÈENÝ', ('NEURÈENÝ'), ('NEURÈENÝ'), ('NEURÈENÝ') ) ;
#85 = CIRCLE ( 'NONE', #117, 3.000000000000000444 ) ;
#86 = DIRECTION ( 'NONE',  ( 0.000000000000000000, 0.000000000000000000, 1.000000000000000000 ) ) ;
#87 = CC_DESIGN_APPROVAL ( #205, ( #56 ) ) ;
#88 = UNCERTAINTY_MEASURE_WITH_UNIT (LENGTH_MEASURE( 1.000000000000000082E-05 ), #236, 'distance_accuracy_value', 'NONE');
#89 = DIRECTION ( 'NONE',  ( -0.000000000000000000, -0.000000000000000000, -1.000000000000000000 ) ) ;
#90 = ADVANCED_FACE ( 'NONE', ( #81 ), #29, .T. ) ;
#91 = ORIENTED_EDGE ( 'NONE', *, *, #144, .T. ) ;
#92 = ORIENTED_EDGE ( 'NONE', *, *, #226, .T. ) ;
#93 = COORDINATED_UNIVERSAL_TIME_OFFSET ( 1, 0, .AHEAD. ) ;
#94 = CC_DESIGN_PERSON_AND_ORGANIZATION_ASSIGNMENT ( #35, #230, ( #56 ) ) ;
#95 = DATE_AND_TIME ( #150, #201 ) ;
#96 = CARTESIAN_POINT ( 'NONE',  ( 0.000000000000000000, 0.000000000000000000, 0.000000000000000000 ) ) ;
#97 = COORDINATED_UNIVERSAL_TIME_OFFSET ( 1, 0, .AHEAD. ) ;
#98 = CIRCLE ( 'NONE', #198, 3.000000000000000444 ) ;
#99 = LINE ( 'NONE', #59, #141 ) ;
#100 = ADVANCED_BREP_SHAPE_REPRESENTATION ( 'f732', ( #232, #75 ), #162 ) ;
#101 = CARTESIAN_POINT ( 'NONE',  ( -3.000000000000000444, 0.000000000000000000, 0.000000000000000000 ) ) ;
#102 = AXIS2_PLACEMENT_3D ( 'NONE', #195, #77, #80 ) ;
#103 = CARTESIAN_POINT ( 'NONE',  ( -1.500000000000000222, 0.000000000000000000, 503.0000000000000000 ) ) ;
#104 = CARTESIAN_POINT ( 'NONE',  ( 0.000000000000000000, 0.000000000000000000, 503.0000000000000000 ) ) ;
#105 = EDGE_CURVE ( 'NONE', #228, #253, #106, .T. ) ;
#106 = CIRCLE ( 'NONE', #47, 3.000000000000000444 ) ;
#107 = ORIENTED_EDGE ( 'NONE', *, *, #105, .F. ) ;
#108 = DIRECTION ( 'NONE',  ( -1.000000000000000000, 0.000000000000000000, 0.000000000000000000 ) ) ;
#109 = FACE_OUTER_BOUND ( 'NONE', #63, .T. ) ;
#110 = DIRECTION ( 'NONE',  ( 0.000000000000000000, 0.000000000000000000, 1.000000000000000000 ) ) ;
#111 = EDGE_LOOP ( 'NONE', ( #107, #69 ) ) ;
#112 = APPROVAL_STATUS ( 'not_yet_approved' ) ;
#113 = APPLICATION_PROTOCOL_DEFINITION ( 'international standard', 'config_control_design', 1994, #224 ) ;
#114 = CIRCLE ( 'NONE', #239, 1.500000000000000222 ) ;
#115 = ORIENTED_EDGE ( 'NONE', *, *, #155, .F. ) ;
#116 = PERSON_AND_ORGANIZATION_ROLE ( 'creator' ) ;
#117 = AXIS2_PLACEMENT_3D ( 'NONE', #203, #238, #60 ) ;
#118 = ORGANIZATION ( 'NEURÈENÝ', 'NEURÈENÝ', '' ) ;
#119 = CALENDAR_DATE ( 2022, 7, 7 ) ;
#120 = ADVANCED_FACE ( 'NONE', ( #200, #127 ), #242, .T. ) ;
#121 = CARTESIAN_POINT ( 'NONE',  ( 0.000000000000000000, 0.000000000000000000, 0.000000000000000000 ) ) ;
#122 = DIRECTION ( 'NONE',  ( 0.000000000000000000, 0.000000000000000000, 1.000000000000000000 ) ) ;
#123 = DIRECTION ( 'NONE',  ( 1.000000000000000000, 0.000000000000000000, 0.000000000000000000 ) ) ;
#124 = APPROVAL_PERSON_ORGANIZATION ( #20, #191, #187 ) ;
#125 = CARTESIAN_POINT ( 'NONE',  ( 0.000000000000000000, 0.000000000000000000, 503.0000000000000000 ) ) ;
#126 = DIRECTION ( 'NONE',  ( -0.000000000000000000, -0.000000000000000000, -1.000000000000000000 ) ) ;
#127 = FACE_OUTER_BOUND ( 'NONE', #179, .T. ) ;
#128 = DIRECTION ( 'NONE',  ( 0.000000000000000000, 0.000000000000000000, 1.000000000000000000 ) ) ;
#129 = CC_DESIGN_DATE_AND_TIME_ASSIGNMENT ( #16, #173, ( #56 ) ) ;
#130 = FACE_OUTER_BOUND ( 'NONE', #55, .T. ) ;
#131 = VERTEX_POINT ( 'NONE', #49 ) ;
#132 = PERSON_AND_ORGANIZATION ( #84, #118 ) ;
#133 = EDGE_LOOP ( 'NONE', ( #180, #206 ) ) ;
#134 = COORDINATED_UNIVERSAL_TIME_OFFSET ( 1, 0, .AHEAD. ) ;
#135 = APPROVAL_DATE_TIME ( #52, #205 ) ;
#136 = EDGE_CURVE ( 'NONE', #67, #131, #85, .T. ) ;
#137 = PERSON_AND_ORGANIZATION_ROLE ( 'classification_officer' ) ;
#138 = LINE ( 'NONE', #103, #5 ) ;
#139 = DIRECTION ( 'NONE',  ( 0.000000000000000000, 0.000000000000000000, 1.000000000000000000 ) ) ;
#140 = DIRECTION ( 'NONE',  ( 1.000000000000000000, 0.000000000000000000, -0.000000000000000000 ) ) ;
#141 = VECTOR ( 'NONE', #79, 1000.000000000000000 ) ;
#142 = LOCAL_TIME ( 19, 55, 40.00000000000000000, #37 ) ;
#143 = ORIENTED_EDGE ( 'NONE', *, *, #152, .T. ) ;
#144 = EDGE_CURVE ( 'NONE', #251, #161, #138, .T. ) ;
#145 = CARTESIAN_POINT ( 'NONE',  ( 0.000000000000000000, 0.000000000000000000, 0.000000000000000000 ) ) ;
#146 = AXIS2_PLACEMENT_3D ( 'NONE', #27, #122, #123 ) ;
#147 = CC_DESIGN_APPROVAL ( #191, ( #42 ) ) ;
#148 = CARTESIAN_POINT ( 'NONE',  ( 0.000000000000000000, 0.000000000000000000, 503.0000000000000000 ) ) ;
#149 = DIRECTION ( 'NONE',  ( -0.000000000000000000, -0.000000000000000000, -1.000000000000000000 ) ) ;
#150 = CALENDAR_DATE ( 2022, 7, 7 ) ;
#151 = APPROVAL_ROLE ( '' ) ;
#152 = EDGE_CURVE ( 'NONE', #67, #253, #197, .T. ) ;
#153 = PRODUCT_DEFINITION_FORMATION_WITH_SPECIFIED_SOURCE ( 'LIBOVOLNÝ', '', #28, .NOT_KNOWN. ) ;
#154 = DIRECTION ( 'NONE',  ( 0.000000000000000000, 0.000000000000000000, 1.000000000000000000 ) ) ;
#155 = EDGE_CURVE ( 'NONE', #131, #67, #66, .T. ) ;
#156 = CARTESIAN_POINT ( 'NONE',  ( 0.000000000000000000, 0.000000000000000000, 3.000000000000000000 ) ) ;
#157 = DIRECTION ( 'NONE',  ( 1.000000000000000000, 0.000000000000000000, 0.000000000000000000 ) ) ;
#158 = CARTESIAN_POINT ( 'NONE',  ( 1.500000000000000222, 1.836970198721030181E-16, 3.000000000000000000 ) ) ;
#159 = DIRECTION ( 'NONE',  ( -1.000000000000000000, 0.000000000000000000, 0.000000000000000000 ) ) ;
#160 = CARTESIAN_POINT ( 'NONE',  ( 0.000000000000000000, 0.000000000000000000, 0.000000000000000000 ) ) ;
#161 = VERTEX_POINT ( 'NONE', #6 ) ;
#162 =( GEOMETRIC_REPRESENTATION_CONTEXT ( 3 ) GLOBAL_UNCERTAINTY_ASSIGNED_CONTEXT ( ( #88 ) ) GLOBAL_UNIT_ASSIGNED_CONTEXT ( ( #236, #39, #235 ) ) REPRESENTATION_CONTEXT ( 'NONE', 'WORKASPACE' ) );
#163 = ORIENTED_EDGE ( 'NONE', *, *, #155, .T. ) ;
#164 = DIRECTION ( 'NONE',  ( 0.000000000000000000, 0.000000000000000000, 1.000000000000000000 ) ) ;
#165 = CC_DESIGN_DATE_AND_TIME_ASSIGNMENT ( #34, #190, ( #42 ) ) ;
#166 = CIRCLE ( 'NONE', #23, 1.500000000000000222 ) ;
#167 = AXIS2_PLACEMENT_3D ( 'NONE', #104, #240, #108 ) ;
#168 = EDGE_LOOP ( 'NONE', ( #207, #53, #44, #72 ) ) ;
#169 = APPROVAL_ROLE ( '' ) ;
#170 = ORIENTED_EDGE ( 'NONE', *, *, #152, .F. ) ;
#171 = APPROVAL_DATE_TIME ( #95, #191 ) ;
#172 = AXIS2_PLACEMENT_3D ( 'NONE', #156, #24, #157 ) ;
#173 = DATE_TIME_ROLE ( 'creation_date' ) ;
#174 = AXIS2_PLACEMENT_3D ( 'NONE', #241, #149, #223 ) ;
#175 = DIRECTION ( 'NONE',  ( -0.000000000000000000, -0.000000000000000000, -1.000000000000000000 ) ) ;
#176 = CC_DESIGN_PERSON_AND_ORGANIZATION_ASSIGNMENT ( #132, #74, ( #153 ) ) ;
#177 = APPLICATION_PROTOCOL_DEFINITION ( 'international standard', 'config_control_design', 1994, #38 ) ;
#178 = FACE_OUTER_BOUND ( 'NONE', #111, .T. ) ;
#179 = EDGE_LOOP ( 'NONE', ( #163, #10 ) ) ;
#180 = ORIENTED_EDGE ( 'NONE', *, *, #4, .T. ) ;
#181 = DIRECTION ( 'NONE',  ( 0.000000000000000000, 0.000000000000000000, 1.000000000000000000 ) ) ;
#182 = ORIENTED_EDGE ( 'NONE', *, *, #25, .T. ) ;
#183 = APPROVAL_PERSON_ORGANIZATION ( #21, #250, #169 ) ;
#184 = VERTEX_POINT ( 'NONE', #216 ) ;
#185 = PRODUCT_DEFINITION_SHAPE ( 'NONE', 'NONE',  #56 ) ;
#186 = ORIENTED_EDGE ( 'NONE', *, *, #17, .F. ) ;
#187 = APPROVAL_ROLE ( '' ) ;
#188 = DIRECTION ( 'NONE',  ( 1.000000000000000000, 0.000000000000000000, 0.000000000000000000 ) ) ;
#189 = ORIENTED_EDGE ( 'NONE', *, *, #105, .T. ) ;
#190 = DATE_TIME_ROLE ( 'classification_date' ) ;
#191 = APPROVAL ( #112, 'NEURÈENÝ' ) ;
#192 = PERSON_AND_ORGANIZATION ( #84, #118 ) ;
#193 = VECTOR ( 'NONE', #175, 1000.000000000000000 ) ;
#194 = CIRCLE ( 'NONE', #40, 1.500000000000000222 ) ;
#195 = CARTESIAN_POINT ( 'NONE',  ( 0.000000000000000000, 0.000000000000000000, 503.0000000000000000 ) ) ;
#196 = LOCAL_TIME ( 19, 55, 40.00000000000000000, #97 ) ;
#197 = LINE ( 'NONE', #26, #193 ) ;
#198 = AXIS2_PLACEMENT_3D ( 'NONE', #160, #245, #68 ) ;
#199 = ORIENTED_EDGE ( 'NONE', *, *, #226, .F. ) ;
#200 = FACE_BOUND ( 'NONE', #82, .T. ) ;
#201 = LOCAL_TIME ( 19, 55, 40.00000000000000000, #134 ) ;
#202 = FACE_OUTER_BOUND ( 'NONE', #133, .T. ) ;
#203 = CARTESIAN_POINT ( 'NONE',  ( 0.000000000000000000, 0.000000000000000000, 3.000000000000000000 ) ) ;
#204 = CARTESIAN_POINT ( 'NONE',  ( 0.000000000000000000, 0.000000000000000000, 3.000000000000000000 ) ) ;
#205 = APPROVAL ( #208, 'NEURÈENÝ' ) ;
#206 = ORIENTED_EDGE ( 'NONE', *, *, #78, .T. ) ;
#207 = ORIENTED_EDGE ( 'NONE', *, *, #78, .F. ) ;
#208 = APPROVAL_STATUS ( 'not_yet_approved' ) ;
#209 = AXIS2_PLACEMENT_3D ( 'NONE', #121, #139, #140 ) ;
#210 = CC_DESIGN_APPROVAL ( #250, ( #153 ) ) ;
#211 = ORIENTED_EDGE ( 'NONE', *, *, #237, .F. ) ;
#212 = PERSON_AND_ORGANIZATION_ROLE ( 'design_owner' ) ;
#213 = PERSON_AND_ORGANIZATION ( #84, #118 ) ;
#214 = CC_DESIGN_PERSON_AND_ORGANIZATION_ASSIGNMENT ( #192, #137, ( #42 ) ) ;
#215 = CARTESIAN_POINT ( 'NONE',  ( 3.000000000000000444, 3.673940397442060361E-16, 0.000000000000000000 ) ) ;
#216 = CARTESIAN_POINT ( 'NONE',  ( 1.500000000000000222, 1.836970198721030181E-16, 503.0000000000000000 ) ) ;
#217 = CYLINDRICAL_SURFACE ( 'NONE', #174, 3.000000000000000444 ) ;
#218 = ADVANCED_FACE ( 'NONE', ( #178 ), #7, .F. ) ;
#219 = DIRECTION ( 'NONE',  ( 1.000000000000000000, 0.000000000000000000, 0.000000000000000000 ) ) ;
#220 = CARTESIAN_POINT ( 'NONE',  ( 0.000000000000000000, 0.000000000000000000, 503.0000000000000000 ) ) ;
#221 = AXIS2_PLACEMENT_3D ( 'NONE', #11, #83, #222 ) ;
#222 = DIRECTION ( 'NONE',  ( 1.000000000000000000, 0.000000000000000000, -0.000000000000000000 ) ) ;
#223 = DIRECTION ( 'NONE',  ( -1.000000000000000000, 0.000000000000000000, 0.000000000000000000 ) ) ;
#224 = APPLICATION_CONTEXT ( 'configuration controlled 3d designs of mechanical parts and assemblies' ) ;
#225 = ORIENTED_EDGE ( 'NONE', *, *, #4, .F. ) ;
#226 = EDGE_CURVE ( 'NONE', #131, #228, #99, .T. ) ;
#227 = VERTEX_POINT ( 'NONE', #158 ) ;
#228 = VERTEX_POINT ( 'NONE', #101 ) ;
#229 = LOCAL_TIME ( 19, 55, 40.00000000000000000, #93 ) ;
#230 = PERSON_AND_ORGANIZATION_ROLE ( 'creator' ) ;
#231 = ADVANCED_FACE ( 'NONE', ( #41 ), #61, .T. ) ;
#232 = MANIFOLD_SOLID_BREP ( 'Pøidat vysunutím3', #249 ) ;
#233 = CARTESIAN_POINT ( 'NONE',  ( -1.500000000000000222, 0.000000000000000000, 503.0000000000000000 ) ) ;
#234 = VECTOR ( 'NONE', #126, 1000.000000000000000 ) ;
#235 =( NAMED_UNIT ( * ) SI_UNIT ( $, .STERADIAN. ) SOLID_ANGLE_UNIT ( ) );
#236 =( LENGTH_UNIT ( ) NAMED_UNIT ( * ) SI_UNIT ( .MILLI., .METRE. ) );
#237 = EDGE_CURVE ( 'NONE', #161, #227, #244, .T. ) ;
#238 = DIRECTION ( 'NONE',  ( 0.000000000000000000, 0.000000000000000000, 1.000000000000000000 ) ) ;
#239 = AXIS2_PLACEMENT_3D ( 'NONE', #204, #86, #30 ) ;
#240 = DIRECTION ( 'NONE',  ( -0.000000000000000000, -0.000000000000000000, -1.000000000000000000 ) ) ;
#241 = CARTESIAN_POINT ( 'NONE',  ( 0.000000000000000000, 0.000000000000000000, 3.000000000000000000 ) ) ;
#242 = PLANE ( 'NONE',  #221 ) ;
#243 = AXIS2_PLACEMENT_3D ( 'NONE', #148, #164, #33 ) ;
#244 = CIRCLE ( 'NONE', #172, 1.500000000000000222 ) ;
#245 = DIRECTION ( 'NONE',  ( 0.000000000000000000, 0.000000000000000000, 1.000000000000000000 ) ) ;
#246 = DESIGN_CONTEXT ( 'detailed design', #224, 'design' ) ;
#247 = CARTESIAN_POINT ( 'NONE',  ( 0.000000000000000000, 0.000000000000000000, 3.000000000000000000 ) ) ;
#248 = COORDINATED_UNIVERSAL_TIME_OFFSET ( 1, 0, .AHEAD. ) ;
#249 = CLOSED_SHELL ( 'NONE', ( #231, #62, #51, #120, #218, #90, #64 ) ) ;
#250 = APPROVAL ( #54, 'NEURÈENÝ' ) ;
#251 = VERTEX_POINT ( 'NONE', #233 ) ;
#252 = DATE_AND_TIME ( #1, #71 ) ;
#253 = VERTEX_POINT ( 'NONE', #215 ) ;
#254 = SHAPE_DEFINITION_REPRESENTATION ( #185, #100 ) ;
#255 = MECHANICAL_CONTEXT ( 'NONE', #38, 'mechanical' ) ;
ENDSEC;
END-ISO-10303-21;
