ISO-10303-21;
HEADER;
FILE_DESCRIPTION (( 'STEP AP203' ),
    '1' );
FILE_NAME ('4abb.STEP',
    '2023-02-13T15:49:36',
    ( '' ),
    ( '' ),
    'SwSTEP 2.0',
    'SolidWorks 2019',
    '' );
FILE_SCHEMA (( 'CONFIG_CONTROL_DESIGN' ));
ENDSEC;

DATA;
#1 = FACE_OUTER_BOUND ( 'NONE', #141, .T. ) ;
#2 = PERSON_AND_ORGANIZATION ( #253, #166 ) ;
#3 = CC_DESIGN_PERSON_AND_ORGANIZATION_ASSIGNMENT ( #102, #124, ( #20 ) ) ;
#4 = PERSON_AND_ORGANIZATION ( #253, #166 ) ;
#5 = ORIENTED_EDGE ( 'NONE', *, *, #70, .T. ) ;
#6 = LOCAL_TIME ( 16, 49, 36.00000000000000000, #26 ) ;
#7 = PERSON_AND_ORGANIZATION ( #253, #166 ) ;
#8 = AXIS2_PLACEMENT_3D ( 'NONE', #17, #98, #114 ) ;
#9 = ORIENTED_EDGE ( 'NONE', *, *, #146, .F. ) ;
#10 = PRODUCT_DEFINITION_SHAPE ( 'NONE', 'NONE',  #100 ) ;
#11 = CIRCLE ( 'NONE', #123, 5.000000000000000000 ) ;
#12 = CARTESIAN_POINT ( 'NONE',  ( -2.600000000000000089, 0.000000000000000000, 100.0000000000000000 ) ) ;
#13 = FACE_OUTER_BOUND ( 'NONE', #136, .T. ) ;
#14 = FACE_BOUND ( 'NONE', #194, .T. ) ;
#15 = CARTESIAN_POINT ( 'NONE',  ( 0.000000000000000000, 0.000000000000000000, 3.000000000000000000 ) ) ;
#16 = ORIENTED_EDGE ( 'NONE', *, *, #70, .F. ) ;
#17 = CARTESIAN_POINT ( 'NONE',  ( 0.000000000000000000, 0.000000000000000000, 0.000000000000000000 ) ) ;
#18 = CC_DESIGN_DATE_AND_TIME_ASSIGNMENT ( #62, #47, ( #100 ) ) ;
#19 = COORDINATED_UNIVERSAL_TIME_OFFSET ( 1, 0, .AHEAD. ) ;
#20 = SECURITY_CLASSIFICATION ( '', '', #23 ) ;
#21 = AXIS2_PLACEMENT_3D ( 'NONE', #118, #196, #140 ) ;
#22 = COORDINATED_UNIVERSAL_TIME_OFFSET ( 1, 0, .AHEAD. ) ;
#23 = SECURITY_CLASSIFICATION_LEVEL ( 'unclassified' ) ;
#24 = CALENDAR_DATE ( 2023, 13, 2 ) ;
#25 = ORIENTED_EDGE ( 'NONE', *, *, #252, .F. ) ;
#26 = COORDINATED_UNIVERSAL_TIME_OFFSET ( 1, 0, .AHEAD. ) ;
#27 = VERTEX_POINT ( 'NONE', #147 ) ;
#28 = APPROVAL ( #216, 'NEURÈENÝ' ) ;
#29 = ORIENTED_EDGE ( 'NONE', *, *, #145, .T. ) ;
#30 = PRODUCT_DEFINITION_FORMATION_WITH_SPECIFIED_SOURCE ( 'LIBOVOLNÝ', '', #208, .NOT_KNOWN. ) ;
#31 = DIRECTION ( 'NONE',  ( 0.000000000000000000, 0.000000000000000000, 1.000000000000000000 ) ) ;
#32 = LINE ( 'NONE', #52, #237 ) ;
#33 = CARTESIAN_POINT ( 'NONE',  ( 2.600000000000000089, 3.184081677783117698E-16, 100.0000000000000000 ) ) ;
#34 = CARTESIAN_POINT ( 'NONE',  ( 0.000000000000000000, 0.000000000000000000, 100.0000000000000000 ) ) ;
#35 = FACE_OUTER_BOUND ( 'NONE', #128, .T. ) ;
#36 = ADVANCED_FACE ( 'NONE', ( #250 ), #223, .T. ) ;
#37 = APPLICATION_PROTOCOL_DEFINITION ( 'international standard', 'config_control_design', 1994, #49 ) ;
#38 = CARTESIAN_POINT ( 'NONE',  ( -5.000000000000000000, 0.000000000000000000, 3.000000000000000000 ) ) ;
#39 = APPROVAL_ROLE ( '' ) ;
#40 = VERTEX_POINT ( 'NONE', #33 ) ;
#41 = EDGE_CURVE ( 'NONE', #178, #58, #222, .T. ) ;
#42 = ORIENTED_EDGE ( 'NONE', *, *, #130, .T. ) ;
#43 = ORIENTED_EDGE ( 'NONE', *, *, #60, .T. ) ;
#44 = APPROVAL_DATE_TIME ( #182, #67 ) ;
#45 = CC_DESIGN_PERSON_AND_ORGANIZATION_ASSIGNMENT ( #85, #163, ( #30 ) ) ;
#46 = ORIENTED_EDGE ( 'NONE', *, *, #252, .T. ) ;
#47 = DATE_TIME_ROLE ( 'creation_date' ) ;
#48 = DIRECTION ( 'NONE',  ( -0.000000000000000000, -0.000000000000000000, -1.000000000000000000 ) ) ;
#49 = APPLICATION_CONTEXT ( 'configuration controlled 3d designs of mechanical parts and assemblies' ) ;
#50 = CARTESIAN_POINT ( 'NONE',  ( 0.000000000000000000, 0.000000000000000000, 0.000000000000000000 ) ) ;
#51 = CARTESIAN_POINT ( 'NONE',  ( 5.000000000000000000, 6.123233995736766282E-16, 0.000000000000000000 ) ) ;
#52 = CARTESIAN_POINT ( 'NONE',  ( 2.600000000000000089, 3.184081677783117698E-16, 100.0000000000000000 ) ) ;
#53 = CIRCLE ( 'NONE', #236, 2.600000000000000089 ) ;
#54 = AXIS2_PLACEMENT_3D ( 'NONE', #225, #188, #135 ) ;
#55 = MECHANICAL_CONTEXT ( 'NONE', #49, 'mechanical' ) ;
#56 = ORIENTED_EDGE ( 'NONE', *, *, #201, .T. ) ;
#57 =( NAMED_UNIT ( * ) SI_UNIT ( $, .STERADIAN. ) SOLID_ANGLE_UNIT ( ) );
#58 = VERTEX_POINT ( 'NONE', #93 ) ;
#59 = PERSON_AND_ORGANIZATION_ROLE ( 'design_owner' ) ;
#60 = EDGE_CURVE ( 'NONE', #143, #58, #229, .T. ) ;
#61 = PLANE ( 'NONE',  #21 ) ;
#62 = DATE_AND_TIME ( #82, #161 ) ;
#63 = LOCAL_TIME ( 16, 49, 36.00000000000000000, #126 ) ;
#64 = EDGE_LOOP ( 'NONE', ( #29, #46 ) ) ;
#65 = CALENDAR_DATE ( 2023, 13, 2 ) ;
#66 = ORIENTED_EDGE ( 'NONE', *, *, #245, .F. ) ;
#67 = APPROVAL ( #241, 'NEURÈENÝ' ) ;
#68 = CALENDAR_DATE ( 2023, 13, 2 ) ;
#69 = PLANE ( 'NONE',  #154 ) ;
#70 = EDGE_CURVE ( 'NONE', #203, #27, #171, .T. ) ;
#71 = CIRCLE ( 'NONE', #137, 5.000000000000000000 ) ;
#72 = DIRECTION ( 'NONE',  ( -0.000000000000000000, -0.000000000000000000, -1.000000000000000000 ) ) ;
#73 = FACE_OUTER_BOUND ( 'NONE', #242, .T. ) ;
#74 = DIRECTION ( 'NONE',  ( 0.000000000000000000, 0.000000000000000000, 1.000000000000000000 ) ) ;
#75 = CARTESIAN_POINT ( 'NONE',  ( 0.000000000000000000, 0.000000000000000000, 100.0000000000000000 ) ) ;
#76 = APPROVAL_PERSON_ORGANIZATION ( #7, #67, #127 ) ;
#77 = CARTESIAN_POINT ( 'NONE',  ( 0.000000000000000000, 0.000000000000000000, 100.0000000000000000 ) ) ;
#78 =( NAMED_UNIT ( * ) PLANE_ANGLE_UNIT ( ) SI_UNIT ( $, .RADIAN. ) );
#79 = CYLINDRICAL_SURFACE ( 'NONE', #152, 5.000000000000000000 ) ;
#80 = FACE_OUTER_BOUND ( 'NONE', #239, .T. ) ;
#81 = DIRECTION ( 'NONE',  ( -0.000000000000000000, -0.000000000000000000, -1.000000000000000000 ) ) ;
#82 = CALENDAR_DATE ( 2023, 13, 2 ) ;
#83 = CC_DESIGN_APPROVAL ( #28, ( #100 ) ) ;
#84 = VERTEX_POINT ( 'NONE', #51 ) ;
#85 = PERSON_AND_ORGANIZATION ( #253, #166 ) ;
#86 = SHAPE_DEFINITION_REPRESENTATION ( #10, #204 ) ;
#87 = APPROVAL_DATE_TIME ( #129, #97 ) ;
#88 = CIRCLE ( 'NONE', #122, 2.600000000000000089 ) ;
#89 = CC_DESIGN_APPROVAL ( #97, ( #30 ) ) ;
#90 = UNCERTAINTY_MEASURE_WITH_UNIT (LENGTH_MEASURE( 1.000000000000000082E-05 ), #193, 'distance_accuracy_value', 'NONE');
#91 = VECTOR ( 'NONE', #111, 1000.000000000000000 ) ;
#92 = CARTESIAN_POINT ( 'NONE',  ( 0.000000000000000000, 0.000000000000000000, 0.000000000000000000 ) ) ;
#93 = CARTESIAN_POINT ( 'NONE',  ( -2.600000000000000089, 0.000000000000000000, 3.000000000000000000 ) ) ;
#94 = DIRECTION ( 'NONE',  ( -0.000000000000000000, -0.000000000000000000, -1.000000000000000000 ) ) ;
#95 = DIRECTION ( 'NONE',  ( 1.000000000000000000, 0.000000000000000000, 0.000000000000000000 ) ) ;
#96 = CIRCLE ( 'NONE', #54, 5.000000000000000000 ) ;
#97 = APPROVAL ( #217, 'NEURÈENÝ' ) ;
#98 = DIRECTION ( 'NONE',  ( 0.000000000000000000, 0.000000000000000000, 1.000000000000000000 ) ) ;
#99 = CALENDAR_DATE ( 2023, 13, 2 ) ;
#100 = PRODUCT_DEFINITION ( 'NEZNÁMÝ', '', #30, #191 ) ;
#101 = DIRECTION ( 'NONE',  ( 0.000000000000000000, 0.000000000000000000, 1.000000000000000000 ) ) ;
#102 = PERSON_AND_ORGANIZATION ( #253, #166 ) ;
#103 = DATE_AND_TIME ( #24, #119 ) ;
#104 = ORIENTED_EDGE ( 'NONE', *, *, #41, .T. ) ;
#105 = APPROVAL_ROLE ( '' ) ;
#106 = ORIENTED_EDGE ( 'NONE', *, *, #245, .T. ) ;
#107 = COORDINATED_UNIVERSAL_TIME_OFFSET ( 1, 0, .AHEAD. ) ;
#108 = DIRECTION ( 'NONE',  ( 1.000000000000000000, 0.000000000000000000, -0.000000000000000000 ) ) ;
#109 = ADVANCED_FACE ( 'NONE', ( #73 ), #153, .T. ) ;
#110 = CLOSED_SHELL ( 'NONE', ( #109, #199, #234, #155, #200, #36, #175 ) ) ;
#111 = DIRECTION ( 'NONE',  ( -0.000000000000000000, -0.000000000000000000, -1.000000000000000000 ) ) ;
#112 = PRODUCT_RELATED_PRODUCT_CATEGORY ( 'detail', '', ( #208 ) ) ;
#113 = CARTESIAN_POINT ( 'NONE',  ( 0.000000000000000000, 0.000000000000000000, 100.0000000000000000 ) ) ;
#114 = DIRECTION ( 'NONE',  ( 1.000000000000000000, 0.000000000000000000, 0.000000000000000000 ) ) ;
#115 = DIRECTION ( 'NONE',  ( 1.000000000000000000, 0.000000000000000000, 0.000000000000000000 ) ) ;
#116 = AXIS2_PLACEMENT_3D ( 'NONE', #113, #31, #108 ) ;
#117 = CARTESIAN_POINT ( 'NONE',  ( 5.000000000000000000, 6.123233995736766282E-16, 3.000000000000000000 ) ) ;
#118 = CARTESIAN_POINT ( 'NONE',  ( 0.000000000000000000, 0.000000000000000000, 0.000000000000000000 ) ) ;
#119 = LOCAL_TIME ( 16, 49, 36.00000000000000000, #107 ) ;
#120 = PERSON_AND_ORGANIZATION ( #253, #166 ) ;
#121 = ORIENTED_EDGE ( 'NONE', *, *, #145, .F. ) ;
#122 = AXIS2_PLACEMENT_3D ( 'NONE', #77, #156, #115 ) ;
#123 = AXIS2_PLACEMENT_3D ( 'NONE', #50, #190, #131 ) ;
#124 = PERSON_AND_ORGANIZATION_ROLE ( 'classification_officer' ) ;
#125 = ORIENTED_EDGE ( 'NONE', *, *, #187, .F. ) ;
#126 = COORDINATED_UNIVERSAL_TIME_OFFSET ( 1, 0, .AHEAD. ) ;
#127 = APPROVAL_ROLE ( '' ) ;
#128 = EDGE_LOOP ( 'NONE', ( #42, #215 ) ) ;
#129 = DATE_AND_TIME ( #68, #63 ) ;
#130 = EDGE_CURVE ( 'NONE', #178, #40, #224, .T. ) ;
#131 = DIRECTION ( 'NONE',  ( 1.000000000000000000, 0.000000000000000000, 0.000000000000000000 ) ) ;
#132 = CARTESIAN_POINT ( 'NONE',  ( 2.600000000000000089, 3.184081677783117698E-16, 3.000000000000000000 ) ) ;
#133 = CIRCLE ( 'NONE', #149, 5.000000000000000000 ) ;
#134 = DIRECTION ( 'NONE',  ( 0.000000000000000000, 0.000000000000000000, 1.000000000000000000 ) ) ;
#135 = DIRECTION ( 'NONE',  ( 1.000000000000000000, 0.000000000000000000, 0.000000000000000000 ) ) ;
#136 = EDGE_LOOP ( 'NONE', ( #25, #106, #176, #16 ) ) ;
#137 = AXIS2_PLACEMENT_3D ( 'NONE', #228, #101, #95 ) ;
#138 = DIRECTION ( 'NONE',  ( 0.000000000000000000, 0.000000000000000000, 1.000000000000000000 ) ) ;
#139 = PERSON_AND_ORGANIZATION ( #253, #166 ) ;
#140 = DIRECTION ( 'NONE',  ( 1.000000000000000000, 0.000000000000000000, -0.000000000000000000 ) ) ;
#141 = EDGE_LOOP ( 'NONE', ( #125, #9 ) ) ;
#142 = LOCAL_TIME ( 16, 49, 36.00000000000000000, #19 ) ;
#143 = VERTEX_POINT ( 'NONE', #132 ) ;
#144 = APPLICATION_CONTEXT ( 'configuration controlled 3d designs of mechanical parts and assemblies' ) ;
#145 = EDGE_CURVE ( 'NONE', #203, #162, #96, .T. ) ;
#146 = EDGE_CURVE ( 'NONE', #84, #27, #11, .T. ) ;
#147 = CARTESIAN_POINT ( 'NONE',  ( -5.000000000000000000, 0.000000000000000000, 0.000000000000000000 ) ) ;
#148 = CARTESIAN_POINT ( 'NONE',  ( 0.000000000000000000, 0.000000000000000000, 3.000000000000000000 ) ) ;
#149 = AXIS2_PLACEMENT_3D ( 'NONE', #92, #169, #246 ) ;
#150 = DIRECTION ( 'NONE',  ( 1.000000000000000000, 0.000000000000000000, 0.000000000000000000 ) ) ;
#151 = DIRECTION ( 'NONE',  ( 1.000000000000000000, 0.000000000000000000, -0.000000000000000000 ) ) ;
#152 = AXIS2_PLACEMENT_3D ( 'NONE', #179, #160, #232 ) ;
#153 = CYLINDRICAL_SURFACE ( 'NONE', #168, 2.600000000000000089 ) ;
#154 = AXIS2_PLACEMENT_3D ( 'NONE', #210, #74, #151 ) ;
#155 = ADVANCED_FACE ( 'NONE', ( #14, #249 ), #69, .T. ) ;
#156 = DIRECTION ( 'NONE',  ( 0.000000000000000000, 0.000000000000000000, 1.000000000000000000 ) ) ;
#157 = ORIENTED_EDGE ( 'NONE', *, *, #173, .T. ) ;
#158 = CC_DESIGN_PERSON_AND_ORGANIZATION_ASSIGNMENT ( #2, #219, ( #30 ) ) ;
#159 = PERSON_AND_ORGANIZATION ( #253, #166 ) ;
#160 = DIRECTION ( 'NONE',  ( -0.000000000000000000, -0.000000000000000000, -1.000000000000000000 ) ) ;
#161 = LOCAL_TIME ( 16, 49, 36.00000000000000000, #22 ) ;
#162 = VERTEX_POINT ( 'NONE', #226 ) ;
#163 = PERSON_AND_ORGANIZATION_ROLE ( 'design_supplier' ) ;
#164 = VECTOR ( 'NONE', #94, 1000.000000000000000 ) ;
#165 = EDGE_LOOP ( 'NONE', ( #184, #220, #104, #56 ) ) ;
#166 = ORGANIZATION ( 'NEURÈENÝ', 'NEURÈENÝ', '' ) ;
#167 = ORIENTED_EDGE ( 'NONE', *, *, #60, .F. ) ;
#168 = AXIS2_PLACEMENT_3D ( 'NONE', #211, #48, #174 ) ;
#169 = DIRECTION ( 'NONE',  ( 0.000000000000000000, 0.000000000000000000, 1.000000000000000000 ) ) ;
#170 = CC_DESIGN_PERSON_AND_ORGANIZATION_ASSIGNMENT ( #159, #59, ( #208 ) ) ;
#171 = LINE ( 'NONE', #248, #91 ) ;
#172 = DIRECTION ( 'NONE',  ( 1.000000000000000000, 0.000000000000000000, 0.000000000000000000 ) ) ;
#173 = EDGE_CURVE ( 'NONE', #40, #143, #32, .T. ) ;
#174 = DIRECTION ( 'NONE',  ( -1.000000000000000000, 0.000000000000000000, 0.000000000000000000 ) ) ;
#175 = ADVANCED_FACE ( 'NONE', ( #35 ), #206, .T. ) ;
#176 = ORIENTED_EDGE ( 'NONE', *, *, #146, .T. ) ;
#177 = AXIS2_PLACEMENT_3D ( 'NONE', #75, #72, #186 ) ;
#178 = VERTEX_POINT ( 'NONE', #12 ) ;
#179 = CARTESIAN_POINT ( 'NONE',  ( 0.000000000000000000, 0.000000000000000000, 3.000000000000000000 ) ) ;
#180 = DATE_AND_TIME ( #99, #142 ) ;
#181 = LINE ( 'NONE', #117, #185 ) ;
#182 = DATE_AND_TIME ( #65, #6 ) ;
#183 = ORIENTED_EDGE ( 'NONE', *, *, #201, .F. ) ;
#184 = ORIENTED_EDGE ( 'NONE', *, *, #173, .F. ) ;
#185 = VECTOR ( 'NONE', #230, 1000.000000000000000 ) ;
#186 = DIRECTION ( 'NONE',  ( -1.000000000000000000, 0.000000000000000000, 0.000000000000000000 ) ) ;
#187 = EDGE_CURVE ( 'NONE', #27, #84, #133, .T. ) ;
#188 = DIRECTION ( 'NONE',  ( 0.000000000000000000, 0.000000000000000000, 1.000000000000000000 ) ) ;
#189 = CARTESIAN_POINT ( 'NONE',  ( -2.600000000000000089, 0.000000000000000000, 100.0000000000000000 ) ) ;
#190 = DIRECTION ( 'NONE',  ( 0.000000000000000000, 0.000000000000000000, 1.000000000000000000 ) ) ;
#191 = DESIGN_CONTEXT ( 'detailed design', #144, 'design' ) ;
#192 = DIRECTION ( 'NONE',  ( 1.000000000000000000, 0.000000000000000000, 0.000000000000000000 ) ) ;
#193 =( LENGTH_UNIT ( ) NAMED_UNIT ( * ) SI_UNIT ( .MILLI., .METRE. ) );
#194 = EDGE_LOOP ( 'NONE', ( #183, #167 ) ) ;
#195 = AXIS2_PLACEMENT_3D ( 'NONE', #34, #134, #150 ) ;
#196 = DIRECTION ( 'NONE',  ( 0.000000000000000000, 0.000000000000000000, 1.000000000000000000 ) ) ;
#197 = APPROVAL_PERSON_ORGANIZATION ( #139, #28, #39 ) ;
#198 = PERSON_AND_ORGANIZATION_ROLE ( 'creator' ) ;
#199 = ADVANCED_FACE ( 'NONE', ( #13 ), #214, .T. ) ;
#200 = ADVANCED_FACE ( 'NONE', ( #1 ), #61, .F. ) ;
#201 = EDGE_CURVE ( 'NONE', #58, #143, #53, .T. ) ;
#202 = DATE_TIME_ROLE ( 'classification_date' ) ;
#203 = VERTEX_POINT ( 'NONE', #38 ) ;
#204 = ADVANCED_BREP_SHAPE_REPRESENTATION ( '4abb', ( #238, #8 ), #235 ) ;
#205 = AXIS2_PLACEMENT_3D ( 'NONE', #15, #81, #254 ) ;
#206 = PLANE ( 'NONE',  #116 ) ;
#207 = CC_DESIGN_SECURITY_CLASSIFICATION ( #20, ( #30 ) ) ;
#208 = PRODUCT ( '4abb', '4abb', '', ( #55 ) ) ;
#209 = CC_DESIGN_DATE_AND_TIME_ASSIGNMENT ( #103, #202, ( #20 ) ) ;
#210 = CARTESIAN_POINT ( 'NONE',  ( 0.000000000000000000, 0.000000000000000000, 3.000000000000000000 ) ) ;
#211 = CARTESIAN_POINT ( 'NONE',  ( 0.000000000000000000, 0.000000000000000000, 100.0000000000000000 ) ) ;
#212 = DIRECTION ( 'NONE',  ( -0.000000000000000000, -0.000000000000000000, -1.000000000000000000 ) ) ;
#213 = APPLICATION_PROTOCOL_DEFINITION ( 'international standard', 'config_control_design', 1994, #144 ) ;
#214 = CYLINDRICAL_SURFACE ( 'NONE', #205, 5.000000000000000000 ) ;
#215 = ORIENTED_EDGE ( 'NONE', *, *, #240, .T. ) ;
#216 = APPROVAL_STATUS ( 'not_yet_approved' ) ;
#217 = APPROVAL_STATUS ( 'not_yet_approved' ) ;
#218 = ORIENTED_EDGE ( 'NONE', *, *, #240, .F. ) ;
#219 = PERSON_AND_ORGANIZATION_ROLE ( 'creator' ) ;
#220 = ORIENTED_EDGE ( 'NONE', *, *, #130, .F. ) ;
#221 = APPROVAL_PERSON_ORGANIZATION ( #4, #97, #105 ) ;
#222 = LINE ( 'NONE', #189, #164 ) ;
#223 = CYLINDRICAL_SURFACE ( 'NONE', #177, 2.600000000000000089 ) ;
#224 = CIRCLE ( 'NONE', #195, 2.600000000000000089 ) ;
#225 = CARTESIAN_POINT ( 'NONE',  ( 0.000000000000000000, 0.000000000000000000, 3.000000000000000000 ) ) ;
#226 = CARTESIAN_POINT ( 'NONE',  ( 5.000000000000000000, 6.123233995736766282E-16, 3.000000000000000000 ) ) ;
#227 = CC_DESIGN_APPROVAL ( #67, ( #20 ) ) ;
#228 = CARTESIAN_POINT ( 'NONE',  ( 0.000000000000000000, 0.000000000000000000, 3.000000000000000000 ) ) ;
#229 = CIRCLE ( 'NONE', #243, 2.600000000000000089 ) ;
#230 = DIRECTION ( 'NONE',  ( -0.000000000000000000, -0.000000000000000000, -1.000000000000000000 ) ) ;
#231 = ORIENTED_EDGE ( 'NONE', *, *, #41, .F. ) ;
#232 = DIRECTION ( 'NONE',  ( -1.000000000000000000, 0.000000000000000000, 0.000000000000000000 ) ) ;
#233 = ORIENTED_EDGE ( 'NONE', *, *, #187, .T. ) ;
#234 = ADVANCED_FACE ( 'NONE', ( #80 ), #79, .T. ) ;
#235 =( GEOMETRIC_REPRESENTATION_CONTEXT ( 3 ) GLOBAL_UNCERTAINTY_ASSIGNED_CONTEXT ( ( #90 ) ) GLOBAL_UNIT_ASSIGNED_CONTEXT ( ( #193, #78, #57 ) ) REPRESENTATION_CONTEXT ( 'NONE', 'WORKASPACE' ) );
#236 = AXIS2_PLACEMENT_3D ( 'NONE', #251, #138, #192 ) ;
#237 = VECTOR ( 'NONE', #212, 1000.000000000000000 ) ;
#238 = MANIFOLD_SOLID_BREP ( 'Pøidat vysunutím3', #110 ) ;
#239 = EDGE_LOOP ( 'NONE', ( #66, #121, #5, #233 ) ) ;
#240 = EDGE_CURVE ( 'NONE', #40, #178, #88, .T. ) ;
#241 = APPROVAL_STATUS ( 'not_yet_approved' ) ;
#242 = EDGE_LOOP ( 'NONE', ( #218, #157, #43, #231 ) ) ;
#243 = AXIS2_PLACEMENT_3D ( 'NONE', #148, #247, #172 ) ;
#244 = CC_DESIGN_PERSON_AND_ORGANIZATION_ASSIGNMENT ( #120, #198, ( #100 ) ) ;
#245 = EDGE_CURVE ( 'NONE', #162, #84, #181, .T. ) ;
#246 = DIRECTION ( 'NONE',  ( 1.000000000000000000, 0.000000000000000000, 0.000000000000000000 ) ) ;
#247 = DIRECTION ( 'NONE',  ( 0.000000000000000000, 0.000000000000000000, 1.000000000000000000 ) ) ;
#248 = CARTESIAN_POINT ( 'NONE',  ( -5.000000000000000000, 0.000000000000000000, 3.000000000000000000 ) ) ;
#249 = FACE_OUTER_BOUND ( 'NONE', #64, .T. ) ;
#250 = FACE_OUTER_BOUND ( 'NONE', #165, .T. ) ;
#251 = CARTESIAN_POINT ( 'NONE',  ( 0.000000000000000000, 0.000000000000000000, 3.000000000000000000 ) ) ;
#252 = EDGE_CURVE ( 'NONE', #162, #203, #71, .T. ) ;
#253 = PERSON ( 'NEURÈENÝ', 'NEURÈENÝ', 'NEURÈENÝ', ('NEURÈENÝ'), ('NEURÈENÝ'), ('NEURÈENÝ') ) ;
#254 = DIRECTION ( 'NONE',  ( -1.000000000000000000, 0.000000000000000000, 0.000000000000000000 ) ) ;
#255 = APPROVAL_DATE_TIME ( #180, #28 ) ;
ENDSEC;
END-ISO-10303-21;
