ISO-10303-21;
HEADER;
FILE_DESCRIPTION (( 'STEP AP203' ),
    '1' );
FILE_NAME ('28fb.STEP',
    '2022-07-07T17:08:01',
    ( '' ),
    ( '' ),
    'SwSTEP 2.0',
    'SolidWorks 2019',
    '' );
FILE_SCHEMA (( 'CONFIG_CONTROL_DESIGN' ));
ENDSEC;

DATA;
#1 = APPROVAL_STATUS ( 'not_yet_approved' ) ;
#2 = DIRECTION ( 'NONE',  ( -0.000000000000000000, -0.000000000000000000, -1.000000000000000000 ) ) ;
#3 = FACE_OUTER_BOUND ( 'NONE', #29, .T. ) ;
#4 = ORIENTED_EDGE ( 'NONE', *, *, #198, .F. ) ;
#5 = DIRECTION ( 'NONE',  ( -1.000000000000000000, 0.000000000000000000, 0.000000000000000000 ) ) ;
#6 = EDGE_LOOP ( 'NONE', ( #4, #146, #166, #12 ) ) ;
#7 = APPROVAL_PERSON_ORGANIZATION ( #191, #76, #19 ) ;
#8 = DIRECTION ( 'NONE',  ( 0.000000000000000000, 0.000000000000000000, 1.000000000000000000 ) ) ;
#9 = DIRECTION ( 'NONE',  ( 1.000000000000000000, 0.000000000000000000, -0.000000000000000000 ) ) ;
#10 = APPLICATION_CONTEXT ( 'configuration controlled 3d designs of mechanical parts and assemblies' ) ;
#11 = CARTESIAN_POINT ( 'NONE',  ( 0.000000000000000000, 0.000000000000000000, 167.0000000000000000 ) ) ;
#12 = ORIENTED_EDGE ( 'NONE', *, *, #153, .T. ) ;
#13 = VERTEX_POINT ( 'NONE', #159 ) ;
#14 = AXIS2_PLACEMENT_3D ( 'NONE', #106, #230, #162 ) ;
#15 = DIRECTION ( 'NONE',  ( 1.000000000000000000, 0.000000000000000000, 0.000000000000000000 ) ) ;
#16 = LOCAL_TIME ( 19, 8, 1.000000000000000000, #172 ) ;
#17 = PERSON_AND_ORGANIZATION ( #83, #175 ) ;
#18 = SECURITY_CLASSIFICATION_LEVEL ( 'unclassified' ) ;
#19 = APPROVAL_ROLE ( '' ) ;
#20 = CARTESIAN_POINT ( 'NONE',  ( 0.000000000000000000, 0.000000000000000000, 167.0000000000000000 ) ) ;
#21 = ORIENTED_EDGE ( 'NONE', *, *, #212, .F. ) ;
#22 = AXIS2_PLACEMENT_3D ( 'NONE', #105, #61, #5 ) ;
#23 = DIRECTION ( 'NONE',  ( -0.000000000000000000, -0.000000000000000000, -1.000000000000000000 ) ) ;
#24 = DIRECTION ( 'NONE',  ( 0.000000000000000000, 0.000000000000000000, 1.000000000000000000 ) ) ;
#25 = DIRECTION ( 'NONE',  ( -0.000000000000000000, -0.000000000000000000, -1.000000000000000000 ) ) ;
#26 = ORIENTED_EDGE ( 'NONE', *, *, #99, .T. ) ;
#27 = CIRCLE ( 'NONE', #253, 11.00000000000000000 ) ;
#28 = CARTESIAN_POINT ( 'NONE',  ( -8.000000000000000000, 0.000000000000000000, 167.0000000000000000 ) ) ;
#29 = EDGE_LOOP ( 'NONE', ( #21, #41, #228, #31 ) ) ;
#30 = CC_DESIGN_PERSON_AND_ORGANIZATION_ASSIGNMENT ( #170, #32, ( #231 ) ) ;
#31 = ORIENTED_EDGE ( 'NONE', *, *, #99, .F. ) ;
#32 = PERSON_AND_ORGANIZATION_ROLE ( 'creator' ) ;
#33 = CARTESIAN_POINT ( 'NONE',  ( 0.000000000000000000, 0.000000000000000000, 0.000000000000000000 ) ) ;
#34 =( NAMED_UNIT ( * ) PLANE_ANGLE_UNIT ( ) SI_UNIT ( $, .RADIAN. ) );
#35 = APPLICATION_PROTOCOL_DEFINITION ( 'international standard', 'config_control_design', 1994, #10 ) ;
#36 = LOCAL_TIME ( 19, 8, 1.000000000000000000, #51 ) ;
#37 = ADVANCED_BREP_SHAPE_REPRESENTATION ( '28fb', ( #114, #77 ), #152 ) ;
#38 =( LENGTH_UNIT ( ) NAMED_UNIT ( * ) SI_UNIT ( .MILLI., .METRE. ) );
#39 = ORIENTED_EDGE ( 'NONE', *, *, #94, .F. ) ;
#40 = DIRECTION ( 'NONE',  ( 0.000000000000000000, 0.000000000000000000, 1.000000000000000000 ) ) ;
#41 = ORIENTED_EDGE ( 'NONE', *, *, #244, .T. ) ;
#42 = LINE ( 'NONE', #108, #181 ) ;
#43 = EDGE_CURVE ( 'NONE', #13, #207, #177, .T. ) ;
#44 = VERTEX_POINT ( 'NONE', #80 ) ;
#45 = PLANE ( 'NONE',  #196 ) ;
#46 = FACE_BOUND ( 'NONE', #184, .T. ) ;
#47 = AXIS2_PLACEMENT_3D ( 'NONE', #242, #238, #142 ) ;
#48 = PLANE ( 'NONE',  #215 ) ;
#49 = APPROVAL_STATUS ( 'not_yet_approved' ) ;
#50 = APPROVAL_ROLE ( '' ) ;
#51 = COORDINATED_UNIVERSAL_TIME_OFFSET ( 1, 0, .AHEAD. ) ;
#52 = VECTOR ( 'NONE', #179, 1000.000000000000000 ) ;
#53 = PERSON_AND_ORGANIZATION ( #83, #175 ) ;
#54 = FACE_OUTER_BOUND ( 'NONE', #6, .T. ) ;
#55 = ADVANCED_FACE ( 'NONE', ( #46, #125 ), #249, .T. ) ;
#56 = DIRECTION ( 'NONE',  ( 1.000000000000000000, 0.000000000000000000, 0.000000000000000000 ) ) ;
#57 = VERTEX_POINT ( 'NONE', #64 ) ;
#58 = CARTESIAN_POINT ( 'NONE',  ( 0.000000000000000000, 0.000000000000000000, 7.000000000000000000 ) ) ;
#59 = VERTEX_POINT ( 'NONE', #203 ) ;
#60 = AXIS2_PLACEMENT_3D ( 'NONE', #229, #240, #161 ) ;
#61 = DIRECTION ( 'NONE',  ( -0.000000000000000000, -0.000000000000000000, -1.000000000000000000 ) ) ;
#62 = ADVANCED_FACE ( 'NONE', ( #141 ), #48, .F. ) ;
#63 = ORIENTED_EDGE ( 'NONE', *, *, #67, .F. ) ;
#64 = CARTESIAN_POINT ( 'NONE',  ( -11.00000000000000000, 0.000000000000000000, 0.000000000000000000 ) ) ;
#65 = ORIENTED_EDGE ( 'NONE', *, *, #209, .F. ) ;
#66 = ORIENTED_EDGE ( 'NONE', *, *, #131, .T. ) ;
#67 = EDGE_CURVE ( 'NONE', #59, #57, #102, .T. ) ;
#68 = APPROVAL_PERSON_ORGANIZATION ( #189, #132, #70 ) ;
#69 = COORDINATED_UNIVERSAL_TIME_OFFSET ( 1, 0, .AHEAD. ) ;
#70 = APPROVAL_ROLE ( '' ) ;
#71 = SHAPE_DEFINITION_REPRESENTATION ( #144, #37 ) ;
#72 = CALENDAR_DATE ( 2022, 7, 7 ) ;
#73 = CC_DESIGN_PERSON_AND_ORGANIZATION_ASSIGNMENT ( #118, #113, ( #156 ) ) ;
#74 = DATE_AND_TIME ( #255, #98 ) ;
#75 = CIRCLE ( 'NONE', #225, 11.00000000000000000 ) ;
#76 = APPROVAL ( #49, 'NEURÈENÝ' ) ;
#77 = AXIS2_PLACEMENT_3D ( 'NONE', #33, #211, #15 ) ;
#78 = CARTESIAN_POINT ( 'NONE',  ( 11.00000000000000000, 1.347111479062088405E-15, 7.000000000000000000 ) ) ;
#79 = CARTESIAN_POINT ( 'NONE',  ( 0.000000000000000000, 0.000000000000000000, 7.000000000000000000 ) ) ;
#80 = CARTESIAN_POINT ( 'NONE',  ( -11.00000000000000000, 0.000000000000000000, 7.000000000000000000 ) ) ;
#81 = DIRECTION ( 'NONE',  ( 0.000000000000000000, 0.000000000000000000, 1.000000000000000000 ) ) ;
#82 = VERTEX_POINT ( 'NONE', #220 ) ;
#83 = PERSON ( 'NEURÈENÝ', 'NEURÈENÝ', 'NEURÈENÝ', ('NEURÈENÝ'), ('NEURÈENÝ'), ('NEURÈENÝ') ) ;
#84 = CYLINDRICAL_SURFACE ( 'NONE', #190, 11.00000000000000000 ) ;
#85 = CARTESIAN_POINT ( 'NONE',  ( 0.000000000000000000, 0.000000000000000000, 0.000000000000000000 ) ) ;
#86 = CIRCLE ( 'NONE', #60, 11.00000000000000000 ) ;
#87 = VERTEX_POINT ( 'NONE', #246 ) ;
#88 = CYLINDRICAL_SURFACE ( 'NONE', #47, 11.00000000000000000 ) ;
#89 = ORIENTED_EDGE ( 'NONE', *, *, #219, .T. ) ;
#90 = CC_DESIGN_PERSON_AND_ORGANIZATION_ASSIGNMENT ( #93, #254, ( #91 ) ) ;
#91 = SECURITY_CLASSIFICATION ( '', '', #18 ) ;
#92 = UNCERTAINTY_MEASURE_WITH_UNIT (LENGTH_MEASURE( 1.000000000000000082E-05 ), #38, 'distance_accuracy_value', 'NONE');
#93 = PERSON_AND_ORGANIZATION ( #83, #175 ) ;
#94 = EDGE_CURVE ( 'NONE', #87, #82, #169, .T. ) ;
#95 = CALENDAR_DATE ( 2022, 7, 7 ) ;
#96 = DATE_TIME_ROLE ( 'classification_date' ) ;
#97 = PERSON_AND_ORGANIZATION_ROLE ( 'design_owner' ) ;
#98 = LOCAL_TIME ( 19, 8, 1.000000000000000000, #154 ) ;
#99 = EDGE_CURVE ( 'NONE', #13, #87, #180, .T. ) ;
#100 = FACE_OUTER_BOUND ( 'NONE', #127, .T. ) ;
#101 = ORIENTED_EDGE ( 'NONE', *, *, #43, .T. ) ;
#102 = CIRCLE ( 'NONE', #252, 11.00000000000000000 ) ;
#103 = CYLINDRICAL_SURFACE ( 'NONE', #239, 8.000000000000000000 ) ;
#104 = DIRECTION ( 'NONE',  ( 1.000000000000000000, 0.000000000000000000, 0.000000000000000000 ) ) ;
#105 = CARTESIAN_POINT ( 'NONE',  ( 0.000000000000000000, 0.000000000000000000, 167.0000000000000000 ) ) ;
#106 = CARTESIAN_POINT ( 'NONE',  ( 0.000000000000000000, 0.000000000000000000, 167.0000000000000000 ) ) ;
#107 = ORIENTED_EDGE ( 'NONE', *, *, #212, .T. ) ;
#108 = CARTESIAN_POINT ( 'NONE',  ( -11.00000000000000000, 0.000000000000000000, 7.000000000000000000 ) ) ;
#109 = ORIENTED_EDGE ( 'NONE', *, *, #244, .F. ) ;
#110 = ADVANCED_FACE ( 'NONE', ( #3 ), #202, .T. ) ;
#111 = AXIS2_PLACEMENT_3D ( 'NONE', #20, #8, #56 ) ;
#112 = ADVANCED_FACE ( 'NONE', ( #158 ), #45, .T. ) ;
#113 = PERSON_AND_ORGANIZATION_ROLE ( 'creator' ) ;
#114 = MANIFOLD_SOLID_BREP ( 'Pøidat vysunutím3', #119 ) ;
#115 = APPROVAL_PERSON_ORGANIZATION ( #173, #201, #50 ) ;
#116 = DATE_AND_TIME ( #95, #218 ) ;
#117 = APPLICATION_PROTOCOL_DEFINITION ( 'international standard', 'config_control_design', 1994, #138 ) ;
#118 = PERSON_AND_ORGANIZATION ( #83, #175 ) ;
#119 = CLOSED_SHELL ( 'NONE', ( #110, #167, #226, #55, #62, #157, #112 ) ) ;
#120 = EDGE_LOOP ( 'NONE', ( #101, #107 ) ) ;
#121 = APPROVAL_DATE_TIME ( #116, #201 ) ;
#122 = CARTESIAN_POINT ( 'NONE',  ( 0.000000000000000000, 0.000000000000000000, 167.0000000000000000 ) ) ;
#123 = DIRECTION ( 'NONE',  ( 1.000000000000000000, 0.000000000000000000, 0.000000000000000000 ) ) ;
#124 = DIRECTION ( 'NONE',  ( 0.000000000000000000, 0.000000000000000000, 1.000000000000000000 ) ) ;
#125 = FACE_OUTER_BOUND ( 'NONE', #241, .T. ) ;
#126 = DIRECTION ( 'NONE',  ( -1.000000000000000000, 0.000000000000000000, 0.000000000000000000 ) ) ;
#127 = EDGE_LOOP ( 'NONE', ( #109, #232, #26, #147 ) ) ;
#128 = DIRECTION ( 'NONE',  ( 1.000000000000000000, 0.000000000000000000, -0.000000000000000000 ) ) ;
#129 = DIRECTION ( 'NONE',  ( 0.000000000000000000, 0.000000000000000000, 1.000000000000000000 ) ) ;
#130 = DIRECTION ( 'NONE',  ( 0.000000000000000000, 0.000000000000000000, 1.000000000000000000 ) ) ;
#131 = EDGE_CURVE ( 'NONE', #44, #247, #75, .T. ) ;
#132 = APPROVAL ( #134, 'NEURÈENÝ' ) ;
#133 = CALENDAR_DATE ( 2022, 7, 7 ) ;
#134 = APPROVAL_STATUS ( 'not_yet_approved' ) ;
#135 = VECTOR ( 'NONE', #23, 1000.000000000000000 ) ;
#136 = LOCAL_TIME ( 19, 8, 1.000000000000000000, #188 ) ;
#137 = CARTESIAN_POINT ( 'NONE',  ( 8.000000000000000000, 9.797174393178825657E-16, 167.0000000000000000 ) ) ;
#138 = APPLICATION_CONTEXT ( 'configuration controlled 3d designs of mechanical parts and assemblies' ) ;
#139 = DIRECTION ( 'NONE',  ( -0.000000000000000000, -0.000000000000000000, -1.000000000000000000 ) ) ;
#140 = CC_DESIGN_PERSON_AND_ORGANIZATION_ASSIGNMENT ( #53, #97, ( #251 ) ) ;
#141 = FACE_OUTER_BOUND ( 'NONE', #164, .T. ) ;
#142 = DIRECTION ( 'NONE',  ( -1.000000000000000000, 0.000000000000000000, 0.000000000000000000 ) ) ;
#143 = DIRECTION ( 'NONE',  ( 0.000000000000000000, 0.000000000000000000, 1.000000000000000000 ) ) ;
#144 = PRODUCT_DEFINITION_SHAPE ( 'NONE', 'NONE',  #156 ) ;
#145 = LINE ( 'NONE', #137, #237 ) ;
#146 = ORIENTED_EDGE ( 'NONE', *, *, #131, .F. ) ;
#147 = ORIENTED_EDGE ( 'NONE', *, *, #94, .T. ) ;
#148 = ORIENTED_EDGE ( 'NONE', *, *, #219, .F. ) ;
#149 = CC_DESIGN_APPROVAL ( #76, ( #231 ) ) ;
#150 = DATE_TIME_ROLE ( 'creation_date' ) ;
#151 = ORIENTED_EDGE ( 'NONE', *, *, #198, .T. ) ;
#152 =( GEOMETRIC_REPRESENTATION_CONTEXT ( 3 ) GLOBAL_UNCERTAINTY_ASSIGNED_CONTEXT ( ( #92 ) ) GLOBAL_UNIT_ASSIGNED_CONTEXT ( ( #38, #34, #236 ) ) REPRESENTATION_CONTEXT ( 'NONE', 'WORKASPACE' ) );
#153 = EDGE_CURVE ( 'NONE', #57, #59, #86, .T. ) ;
#154 = COORDINATED_UNIVERSAL_TIME_OFFSET ( 1, 0, .AHEAD. ) ;
#155 = AXIS2_PLACEMENT_3D ( 'NONE', #223, #129, #123 ) ;
#156 = PRODUCT_DEFINITION ( 'NEZNÁMÝ', '', #231, #178 ) ;
#157 = ADVANCED_FACE ( 'NONE', ( #100 ), #103, .T. ) ;
#158 = FACE_OUTER_BOUND ( 'NONE', #120, .T. ) ;
#159 = CARTESIAN_POINT ( 'NONE',  ( -8.000000000000000000, 0.000000000000000000, 167.0000000000000000 ) ) ;
#160 = CC_DESIGN_PERSON_AND_ORGANIZATION_ASSIGNMENT ( #17, #234, ( #231 ) ) ;
#161 = DIRECTION ( 'NONE',  ( 1.000000000000000000, 0.000000000000000000, 0.000000000000000000 ) ) ;
#162 = DIRECTION ( 'NONE',  ( 1.000000000000000000, 0.000000000000000000, 0.000000000000000000 ) ) ;
#163 = CARTESIAN_POINT ( 'NONE',  ( 0.000000000000000000, 0.000000000000000000, 7.000000000000000000 ) ) ;
#164 = EDGE_LOOP ( 'NONE', ( #243, #63 ) ) ;
#165 = DIRECTION ( 'NONE',  ( 0.000000000000000000, 0.000000000000000000, 1.000000000000000000 ) ) ;
#166 = ORIENTED_EDGE ( 'NONE', *, *, #209, .T. ) ;
#167 = ADVANCED_FACE ( 'NONE', ( #199 ), #88, .T. ) ;
#168 = CIRCLE ( 'NONE', #195, 8.000000000000000000 ) ;
#169 = CIRCLE ( 'NONE', #155, 8.000000000000000000 ) ;
#170 = PERSON_AND_ORGANIZATION ( #83, #175 ) ;
#171 = PRODUCT_RELATED_PRODUCT_CATEGORY ( 'detail', '', ( #251 ) ) ;
#172 = COORDINATED_UNIVERSAL_TIME_OFFSET ( 1, 0, .AHEAD. ) ;
#173 = PERSON_AND_ORGANIZATION ( #83, #175 ) ;
#174 = APPROVAL_DATE_TIME ( #233, #132 ) ;
#175 = ORGANIZATION ( 'NEURÈENÝ', 'NEURÈENÝ', '' ) ;
#176 = DIRECTION ( 'NONE',  ( -0.000000000000000000, -0.000000000000000000, -1.000000000000000000 ) ) ;
#177 = CIRCLE ( 'NONE', #14, 8.000000000000000000 ) ;
#178 = DESIGN_CONTEXT ( 'detailed design', #10, 'design' ) ;
#179 = DIRECTION ( 'NONE',  ( -0.000000000000000000, -0.000000000000000000, -1.000000000000000000 ) ) ;
#180 = LINE ( 'NONE', #28, #135 ) ;
#181 = VECTOR ( 'NONE', #25, 1000.000000000000000 ) ;
#182 = CARTESIAN_POINT ( 'NONE',  ( 0.000000000000000000, 0.000000000000000000, 7.000000000000000000 ) ) ;
#183 = CARTESIAN_POINT ( 'NONE',  ( 0.000000000000000000, 0.000000000000000000, 0.000000000000000000 ) ) ;
#184 = EDGE_LOOP ( 'NONE', ( #39, #227 ) ) ;
#185 = DIRECTION ( 'NONE',  ( 1.000000000000000000, 0.000000000000000000, 0.000000000000000000 ) ) ;
#186 = EDGE_LOOP ( 'NONE', ( #148, #151, #200, #65 ) ) ;
#187 = CC_DESIGN_APPROVAL ( #201, ( #91 ) ) ;
#188 = COORDINATED_UNIVERSAL_TIME_OFFSET ( 1, 0, .AHEAD. ) ;
#189 = PERSON_AND_ORGANIZATION ( #83, #175 ) ;
#190 = AXIS2_PLACEMENT_3D ( 'NONE', #163, #139, #245 ) ;
#191 = PERSON_AND_ORGANIZATION ( #83, #175 ) ;
#192 = EDGE_CURVE ( 'NONE', #82, #87, #168, .T. ) ;
#193 = DATE_AND_TIME ( #72, #136 ) ;
#194 = CC_DESIGN_DATE_AND_TIME_ASSIGNMENT ( #213, #96, ( #91 ) ) ;
#195 = AXIS2_PLACEMENT_3D ( 'NONE', #182, #165, #206 ) ;
#196 = AXIS2_PLACEMENT_3D ( 'NONE', #11, #81, #128 ) ;
#197 = AXIS2_PLACEMENT_3D ( 'NONE', #208, #143, #205 ) ;
#198 = EDGE_CURVE ( 'NONE', #247, #59, #224, .T. ) ;
#199 = FACE_OUTER_BOUND ( 'NONE', #186, .T. ) ;
#200 = ORIENTED_EDGE ( 'NONE', *, *, #67, .T. ) ;
#201 = APPROVAL ( #1, 'NEURÈENÝ' ) ;
#202 = CYLINDRICAL_SURFACE ( 'NONE', #22, 8.000000000000000000 ) ;
#203 = CARTESIAN_POINT ( 'NONE',  ( 11.00000000000000000, 1.347111479062088405E-15, 0.000000000000000000 ) ) ;
#204 = CARTESIAN_POINT ( 'NONE',  ( 11.00000000000000000, 1.347111479062088405E-15, 7.000000000000000000 ) ) ;
#205 = DIRECTION ( 'NONE',  ( 1.000000000000000000, 0.000000000000000000, -0.000000000000000000 ) ) ;
#206 = DIRECTION ( 'NONE',  ( 1.000000000000000000, 0.000000000000000000, 0.000000000000000000 ) ) ;
#207 = VERTEX_POINT ( 'NONE', #248 ) ;
#208 = CARTESIAN_POINT ( 'NONE',  ( 0.000000000000000000, 0.000000000000000000, 7.000000000000000000 ) ) ;
#209 = EDGE_CURVE ( 'NONE', #44, #57, #42, .T. ) ;
#210 = APPROVAL_DATE_TIME ( #74, #76 ) ;
#211 = DIRECTION ( 'NONE',  ( 0.000000000000000000, 0.000000000000000000, 1.000000000000000000 ) ) ;
#212 = EDGE_CURVE ( 'NONE', #207, #13, #221, .T. ) ;
#213 = DATE_AND_TIME ( #133, #36 ) ;
#214 = CC_DESIGN_SECURITY_CLASSIFICATION ( #91, ( #231 ) ) ;
#215 = AXIS2_PLACEMENT_3D ( 'NONE', #183, #130, #9 ) ;
#216 = CALENDAR_DATE ( 2022, 7, 7 ) ;
#217 = CC_DESIGN_DATE_AND_TIME_ASSIGNMENT ( #193, #150, ( #156 ) ) ;
#218 = LOCAL_TIME ( 19, 8, 1.000000000000000000, #69 ) ;
#219 = EDGE_CURVE ( 'NONE', #247, #44, #27, .T. ) ;
#220 = CARTESIAN_POINT ( 'NONE',  ( 8.000000000000000000, 9.797174393178825657E-16, 7.000000000000000000 ) ) ;
#221 = CIRCLE ( 'NONE', #111, 8.000000000000000000 ) ;
#222 = DIRECTION ( 'NONE',  ( 1.000000000000000000, 0.000000000000000000, 0.000000000000000000 ) ) ;
#223 = CARTESIAN_POINT ( 'NONE',  ( 0.000000000000000000, 0.000000000000000000, 7.000000000000000000 ) ) ;
#224 = LINE ( 'NONE', #204, #52 ) ;
#225 = AXIS2_PLACEMENT_3D ( 'NONE', #58, #124, #222 ) ;
#226 = ADVANCED_FACE ( 'NONE', ( #54 ), #84, .T. ) ;
#227 = ORIENTED_EDGE ( 'NONE', *, *, #192, .F. ) ;
#228 = ORIENTED_EDGE ( 'NONE', *, *, #192, .T. ) ;
#229 = CARTESIAN_POINT ( 'NONE',  ( 0.000000000000000000, 0.000000000000000000, 0.000000000000000000 ) ) ;
#230 = DIRECTION ( 'NONE',  ( 0.000000000000000000, 0.000000000000000000, 1.000000000000000000 ) ) ;
#231 = PRODUCT_DEFINITION_FORMATION_WITH_SPECIFIED_SOURCE ( 'LIBOVOLNÝ', '', #251, .NOT_KNOWN. ) ;
#232 = ORIENTED_EDGE ( 'NONE', *, *, #43, .F. ) ;
#233 = DATE_AND_TIME ( #216, #16 ) ;
#234 = PERSON_AND_ORGANIZATION_ROLE ( 'design_supplier' ) ;
#235 = MECHANICAL_CONTEXT ( 'NONE', #138, 'mechanical' ) ;
#236 =( NAMED_UNIT ( * ) SI_UNIT ( $, .STERADIAN. ) SOLID_ANGLE_UNIT ( ) );
#237 = VECTOR ( 'NONE', #2, 1000.000000000000000 ) ;
#238 = DIRECTION ( 'NONE',  ( -0.000000000000000000, -0.000000000000000000, -1.000000000000000000 ) ) ;
#239 = AXIS2_PLACEMENT_3D ( 'NONE', #122, #176, #126 ) ;
#240 = DIRECTION ( 'NONE',  ( 0.000000000000000000, 0.000000000000000000, 1.000000000000000000 ) ) ;
#241 = EDGE_LOOP ( 'NONE', ( #66, #89 ) ) ;
#242 = CARTESIAN_POINT ( 'NONE',  ( 0.000000000000000000, 0.000000000000000000, 7.000000000000000000 ) ) ;
#243 = ORIENTED_EDGE ( 'NONE', *, *, #153, .F. ) ;
#244 = EDGE_CURVE ( 'NONE', #207, #82, #145, .T. ) ;
#245 = DIRECTION ( 'NONE',  ( -1.000000000000000000, 0.000000000000000000, 0.000000000000000000 ) ) ;
#246 = CARTESIAN_POINT ( 'NONE',  ( -8.000000000000000000, 0.000000000000000000, 7.000000000000000000 ) ) ;
#247 = VERTEX_POINT ( 'NONE', #78 ) ;
#248 = CARTESIAN_POINT ( 'NONE',  ( 8.000000000000000000, 9.797174393178825657E-16, 167.0000000000000000 ) ) ;
#249 = PLANE ( 'NONE',  #197 ) ;
#250 = CC_DESIGN_APPROVAL ( #132, ( #156 ) ) ;
#251 = PRODUCT ( '28fb', '28fb', '', ( #235 ) ) ;
#252 = AXIS2_PLACEMENT_3D ( 'NONE', #85, #24, #104 ) ;
#253 = AXIS2_PLACEMENT_3D ( 'NONE', #79, #40, #185 ) ;
#254 = PERSON_AND_ORGANIZATION_ROLE ( 'classification_officer' ) ;
#255 = CALENDAR_DATE ( 2022, 7, 7 ) ;
ENDSEC;
END-ISO-10303-21;
