ISO-10303-21;
HEADER;
FILE_DESCRIPTION (( 'STEP AP203' ),
    '1' );
FILE_NAME ('d0c4.STEP',
    '2022-07-07T17:39:47',
    ( '' ),
    ( '' ),
    'SwSTEP 2.0',
    'SolidWorks 2019',
    '' );
FILE_SCHEMA (( 'CONFIG_CONTROL_DESIGN' ));
ENDSEC;

DATA;
#1 = ORIENTED_EDGE ( 'NONE', *, *, #65, .F. ) ;
#2 = ORIENTED_EDGE ( 'NONE', *, *, #188, .T. ) ;
#3 = APPROVAL_STATUS ( 'not_yet_approved' ) ;
#4 =( GEOMETRIC_REPRESENTATION_CONTEXT ( 3 ) GLOBAL_UNCERTAINTY_ASSIGNED_CONTEXT ( ( #151 ) ) GLOBAL_UNIT_ASSIGNED_CONTEXT ( ( #159, #237, #200 ) ) REPRESENTATION_CONTEXT ( 'NONE', 'WORKASPACE' ) );
#5 = EDGE_CURVE ( 'NONE', #94, #115, #76, .T. ) ;
#6 = DATE_TIME_ROLE ( 'creation_date' ) ;
#7 = APPLICATION_CONTEXT ( 'configuration controlled 3d designs of mechanical parts and assemblies' ) ;
#8 = CIRCLE ( 'NONE', #102, 6.000000000000000888 ) ;
#9 = CARTESIAN_POINT ( 'NONE',  ( 6.000000000000000888, 7.347880794884120722E-16, 0.000000000000000000 ) ) ;
#10 = PERSON_AND_ORGANIZATION ( #190, #198 ) ;
#11 = DIRECTION ( 'NONE',  ( 1.000000000000000000, 0.000000000000000000, 0.000000000000000000 ) ) ;
#12 = APPROVAL_DATE_TIME ( #202, #229 ) ;
#13 = DIRECTION ( 'NONE',  ( 1.000000000000000000, 0.000000000000000000, 0.000000000000000000 ) ) ;
#14 = APPROVAL_STATUS ( 'not_yet_approved' ) ;
#15 = FACE_OUTER_BOUND ( 'NONE', #253, .T. ) ;
#16 = CIRCLE ( 'NONE', #250, 3.100000000000000089 ) ;
#17 = APPLICATION_CONTEXT ( 'configuration controlled 3d designs of mechanical parts and assemblies' ) ;
#18 = CARTESIAN_POINT ( 'NONE',  ( -3.100000000000000089, 0.000000000000000000, 130.0000000000000000 ) ) ;
#19 = ADVANCED_FACE ( 'NONE', ( #233 ), #60, .T. ) ;
#20 = EDGE_LOOP ( 'NONE', ( #157, #24, #62, #77 ) ) ;
#21 = CC_DESIGN_PERSON_AND_ORGANIZATION_ASSIGNMENT ( #241, #106, ( #195 ) ) ;
#22 = ORIENTED_EDGE ( 'NONE', *, *, #161, .F. ) ;
#23 = AXIS2_PLACEMENT_3D ( 'NONE', #105, #186, #69 ) ;
#24 = ORIENTED_EDGE ( 'NONE', *, *, #161, .T. ) ;
#25 = CIRCLE ( 'NONE', #191, 6.000000000000000888 ) ;
#26 = CC_DESIGN_DATE_AND_TIME_ASSIGNMENT ( #30, #6, ( #212 ) ) ;
#27 = CARTESIAN_POINT ( 'NONE',  ( 0.000000000000000000, 0.000000000000000000, 5.000000000000000000 ) ) ;
#28 = APPROVAL_DATE_TIME ( #125, #79 ) ;
#29 = PLANE ( 'NONE',  #31 ) ;
#30 = DATE_AND_TIME ( #166, #86 ) ;
#31 = AXIS2_PLACEMENT_3D ( 'NONE', #32, #109, #127 ) ;
#32 = CARTESIAN_POINT ( 'NONE',  ( 0.000000000000000000, 0.000000000000000000, 0.000000000000000000 ) ) ;
#33 = COORDINATED_UNIVERSAL_TIME_OFFSET ( 1, 0, .AHEAD. ) ;
#34 = PRODUCT ( 'd0c4', 'd0c4', '', ( #78 ) ) ;
#35 = AXIS2_PLACEMENT_3D ( 'NONE', #189, #172, #56 ) ;
#36 = CALENDAR_DATE ( 2022, 7, 7 ) ;
#37 = DIRECTION ( 'NONE',  ( -0.000000000000000000, -0.000000000000000000, -1.000000000000000000 ) ) ;
#38 = CARTESIAN_POINT ( 'NONE',  ( -6.000000000000000888, 0.000000000000000000, 0.000000000000000000 ) ) ;
#39 = LOCAL_TIME ( 19, 39, 47.00000000000000000, #67 ) ;
#40 = CC_DESIGN_DATE_AND_TIME_ASSIGNMENT ( #182, #171, ( #195 ) ) ;
#41 = ORIENTED_EDGE ( 'NONE', *, *, #164, .F. ) ;
#42 = DIRECTION ( 'NONE',  ( -1.000000000000000000, 0.000000000000000000, 0.000000000000000000 ) ) ;
#43 = ORIENTED_EDGE ( 'NONE', *, *, #5, .T. ) ;
#44 = AXIS2_PLACEMENT_3D ( 'NONE', #225, #66, #170 ) ;
#45 = ORIENTED_EDGE ( 'NONE', *, *, #144, .F. ) ;
#46 = PERSON_AND_ORGANIZATION_ROLE ( 'design_owner' ) ;
#47 = LOCAL_TIME ( 19, 39, 47.00000000000000000, #54 ) ;
#48 = EDGE_CURVE ( 'NONE', #59, #236, #16, .T. ) ;
#49 = DIRECTION ( 'NONE',  ( 0.000000000000000000, 0.000000000000000000, 1.000000000000000000 ) ) ;
#50 = CC_DESIGN_APPROVAL ( #229, ( #195 ) ) ;
#51 = EDGE_CURVE ( 'NONE', #194, #115, #8, .T. ) ;
#52 = SECURITY_CLASSIFICATION_LEVEL ( 'unclassified' ) ;
#53 = CARTESIAN_POINT ( 'NONE',  ( 6.000000000000000888, 7.347880794884120722E-16, 5.000000000000000000 ) ) ;
#54 = COORDINATED_UNIVERSAL_TIME_OFFSET ( 1, 0, .AHEAD. ) ;
#55 = CARTESIAN_POINT ( 'NONE',  ( 0.000000000000000000, 0.000000000000000000, 5.000000000000000000 ) ) ;
#56 = DIRECTION ( 'NONE',  ( 1.000000000000000000, 0.000000000000000000, -0.000000000000000000 ) ) ;
#57 = CIRCLE ( 'NONE', #82, 3.100000000000000089 ) ;
#58 = DESIGN_CONTEXT ( 'detailed design', #7, 'design' ) ;
#59 = VERTEX_POINT ( 'NONE', #163 ) ;
#60 = CYLINDRICAL_SURFACE ( 'NONE', #117, 3.100000000000000089 ) ;
#61 = ORIENTED_EDGE ( 'NONE', *, *, #88, .T. ) ;
#62 = ORIENTED_EDGE ( 'NONE', *, *, #140, .T. ) ;
#63 = APPLICATION_PROTOCOL_DEFINITION ( 'international standard', 'config_control_design', 1994, #17 ) ;
#64 = AXIS2_PLACEMENT_3D ( 'NONE', #221, #126, #207 ) ;
#65 = EDGE_CURVE ( 'NONE', #96, #94, #134, .T. ) ;
#66 = DIRECTION ( 'NONE',  ( 0.000000000000000000, 0.000000000000000000, 1.000000000000000000 ) ) ;
#67 = COORDINATED_UNIVERSAL_TIME_OFFSET ( 1, 0, .AHEAD. ) ;
#68 = DATE_AND_TIME ( #84, #121 ) ;
#69 = DIRECTION ( 'NONE',  ( -1.000000000000000000, 0.000000000000000000, 0.000000000000000000 ) ) ;
#70 = CARTESIAN_POINT ( 'NONE',  ( 0.000000000000000000, 0.000000000000000000, 130.0000000000000000 ) ) ;
#71 = FACE_OUTER_BOUND ( 'NONE', #235, .T. ) ;
#72 = PERSON_AND_ORGANIZATION_ROLE ( 'creator' ) ;
#73 = CC_DESIGN_PERSON_AND_ORGANIZATION_ASSIGNMENT ( #81, #46, ( #34 ) ) ;
#74 = DIRECTION ( 'NONE',  ( 0.000000000000000000, 0.000000000000000000, 1.000000000000000000 ) ) ;
#75 = ORIENTED_EDGE ( 'NONE', *, *, #48, .F. ) ;
#76 = LINE ( 'NONE', #175, #122 ) ;
#77 = ORIENTED_EDGE ( 'NONE', *, *, #249, .F. ) ;
#78 = MECHANICAL_CONTEXT ( 'NONE', #17, 'mechanical' ) ;
#79 = APPROVAL ( #83, 'NEURÈENÝ' ) ;
#80 = ORIENTED_EDGE ( 'NONE', *, *, #88, .F. ) ;
#81 = PERSON_AND_ORGANIZATION ( #190, #198 ) ;
#82 = AXIS2_PLACEMENT_3D ( 'NONE', #70, #74, #228 ) ;
#83 = APPROVAL_STATUS ( 'not_yet_approved' ) ;
#84 = CALENDAR_DATE ( 2022, 7, 7 ) ;
#85 = CARTESIAN_POINT ( 'NONE',  ( 0.000000000000000000, 0.000000000000000000, 5.000000000000000000 ) ) ;
#86 = LOCAL_TIME ( 19, 39, 47.00000000000000000, #204 ) ;
#87 = PERSON_AND_ORGANIZATION ( #190, #198 ) ;
#88 = EDGE_CURVE ( 'NONE', #115, #194, #247, .T. ) ;
#89 = LINE ( 'NONE', #238, #240 ) ;
#90 = CARTESIAN_POINT ( 'NONE',  ( 0.000000000000000000, 0.000000000000000000, 130.0000000000000000 ) ) ;
#91 = DIRECTION ( 'NONE',  ( -0.000000000000000000, -0.000000000000000000, -1.000000000000000000 ) ) ;
#92 = LOCAL_TIME ( 19, 39, 47.00000000000000000, #33 ) ;
#93 = ORIENTED_EDGE ( 'NONE', *, *, #5, .F. ) ;
#94 = VERTEX_POINT ( 'NONE', #53 ) ;
#95 = AXIS2_PLACEMENT_3D ( 'NONE', #85, #168, #162 ) ;
#96 = VERTEX_POINT ( 'NONE', #142 ) ;
#97 = ADVANCED_FACE ( 'NONE', ( #243 ), #29, .F. ) ;
#98 = AXIS2_PLACEMENT_3D ( 'NONE', #99, #177, #199 ) ;
#99 = CARTESIAN_POINT ( 'NONE',  ( 0.000000000000000000, 0.000000000000000000, 0.000000000000000000 ) ) ;
#100 = ORIENTED_EDGE ( 'NONE', *, *, #51, .T. ) ;
#101 = APPLICATION_PROTOCOL_DEFINITION ( 'international standard', 'config_control_design', 1994, #7 ) ;
#102 = AXIS2_PLACEMENT_3D ( 'NONE', #203, #107, #11 ) ;
#103 = CARTESIAN_POINT ( 'NONE',  ( -6.000000000000000888, 0.000000000000000000, 5.000000000000000000 ) ) ;
#104 = CARTESIAN_POINT ( 'NONE',  ( 0.000000000000000000, 0.000000000000000000, 5.000000000000000000 ) ) ;
#105 = CARTESIAN_POINT ( 'NONE',  ( 0.000000000000000000, 0.000000000000000000, 130.0000000000000000 ) ) ;
#106 = PERSON_AND_ORGANIZATION_ROLE ( 'classification_officer' ) ;
#107 = DIRECTION ( 'NONE',  ( 0.000000000000000000, 0.000000000000000000, 1.000000000000000000 ) ) ;
#108 = CALENDAR_DATE ( 2022, 7, 7 ) ;
#109 = DIRECTION ( 'NONE',  ( 0.000000000000000000, 0.000000000000000000, 1.000000000000000000 ) ) ;
#110 = PRODUCT_DEFINITION_FORMATION_WITH_SPECIFIED_SOURCE ( 'LIBOVOLNÝ', '', #34, .NOT_KNOWN. ) ;
#111 = LINE ( 'NONE', #18, #196 ) ;
#112 = PLANE ( 'NONE',  #35 ) ;
#113 = CC_DESIGN_PERSON_AND_ORGANIZATION_ASSIGNMENT ( #239, #208, ( #110 ) ) ;
#114 = ADVANCED_FACE ( 'NONE', ( #145 ), #223, .T. ) ;
#115 = VERTEX_POINT ( 'NONE', #9 ) ;
#116 = CARTESIAN_POINT ( 'NONE',  ( 0.000000000000000000, 0.000000000000000000, 130.0000000000000000 ) ) ;
#117 = AXIS2_PLACEMENT_3D ( 'NONE', #137, #216, #42 ) ;
#118 = VERTEX_POINT ( 'NONE', #130 ) ;
#119 = AXIS2_PLACEMENT_3D ( 'NONE', #90, #248, #245 ) ;
#120 = ORIENTED_EDGE ( 'NONE', *, *, #249, .T. ) ;
#121 = LOCAL_TIME ( 19, 39, 47.00000000000000000, #226 ) ;
#122 = VECTOR ( 'NONE', #155, 1000.000000000000000 ) ;
#123 = LINE ( 'NONE', #103, #230 ) ;
#124 = CARTESIAN_POINT ( 'NONE',  ( 0.000000000000000000, 0.000000000000000000, 5.000000000000000000 ) ) ;
#125 = DATE_AND_TIME ( #108, #47 ) ;
#126 = DIRECTION ( 'NONE',  ( 0.000000000000000000, 0.000000000000000000, 1.000000000000000000 ) ) ;
#127 = DIRECTION ( 'NONE',  ( 1.000000000000000000, 0.000000000000000000, -0.000000000000000000 ) ) ;
#128 = CALENDAR_DATE ( 2022, 7, 7 ) ;
#129 = ADVANCED_FACE ( 'NONE', ( #71 ), #246, .T. ) ;
#130 = CARTESIAN_POINT ( 'NONE',  ( -3.100000000000000089, 0.000000000000000000, 5.000000000000000000 ) ) ;
#131 = CARTESIAN_POINT ( 'NONE',  ( 3.100000000000000089, 3.796405077356794918E-16, 5.000000000000000000 ) ) ;
#132 = AXIS2_PLACEMENT_3D ( 'NONE', #124, #165, #205 ) ;
#133 = FACE_OUTER_BOUND ( 'NONE', #215, .T. ) ;
#134 = CIRCLE ( 'NONE', #64, 6.000000000000000888 ) ;
#135 = EDGE_LOOP ( 'NONE', ( #197, #80 ) ) ;
#136 = ORIENTED_EDGE ( 'NONE', *, *, #140, .F. ) ;
#137 = CARTESIAN_POINT ( 'NONE',  ( 0.000000000000000000, 0.000000000000000000, 130.0000000000000000 ) ) ;
#138 = CLOSED_SHELL ( 'NONE', ( #19, #255, #129, #217, #97, #114, #252 ) ) ;
#139 = CC_DESIGN_APPROVAL ( #201, ( #212 ) ) ;
#140 = EDGE_CURVE ( 'NONE', #234, #118, #176, .T. ) ;
#141 = DIRECTION ( 'NONE',  ( 1.000000000000000000, 0.000000000000000000, 0.000000000000000000 ) ) ;
#142 = CARTESIAN_POINT ( 'NONE',  ( -6.000000000000000888, 0.000000000000000000, 5.000000000000000000 ) ) ;
#143 = MANIFOLD_SOLID_BREP ( 'Pøidat vysunutím3', #138 ) ;
#144 = EDGE_CURVE ( 'NONE', #118, #234, #167, .T. ) ;
#145 = FACE_OUTER_BOUND ( 'NONE', #193, .T. ) ;
#146 = PERSON_AND_ORGANIZATION ( #190, #198 ) ;
#147 = ADVANCED_BREP_SHAPE_REPRESENTATION ( 'd0c4', ( #143, #98 ), #4 ) ;
#148 = PERSON_AND_ORGANIZATION_ROLE ( 'creator' ) ;
#149 = FACE_OUTER_BOUND ( 'NONE', #174, .T. ) ;
#150 = DIRECTION ( 'NONE',  ( 0.000000000000000000, 0.000000000000000000, 1.000000000000000000 ) ) ;
#151 = UNCERTAINTY_MEASURE_WITH_UNIT (LENGTH_MEASURE( 1.000000000000000082E-05 ), #159, 'distance_accuracy_value', 'NONE');
#152 = APPROVAL_PERSON_ORGANIZATION ( #10, #229, #206 ) ;
#153 = APPROVAL_PERSON_ORGANIZATION ( #87, #79, #224 ) ;
#154 = ORIENTED_EDGE ( 'NONE', *, *, #188, .F. ) ;
#155 = DIRECTION ( 'NONE',  ( -0.000000000000000000, -0.000000000000000000, -1.000000000000000000 ) ) ;
#156 = CC_DESIGN_PERSON_AND_ORGANIZATION_ASSIGNMENT ( #222, #148, ( #110 ) ) ;
#157 = ORIENTED_EDGE ( 'NONE', *, *, #210, .F. ) ;
#158 = EDGE_LOOP ( 'NONE', ( #45, #136 ) ) ;
#159 =( LENGTH_UNIT ( ) NAMED_UNIT ( * ) SI_UNIT ( .MILLI., .METRE. ) );
#160 = CC_DESIGN_SECURITY_CLASSIFICATION ( #195, ( #110 ) ) ;
#161 = EDGE_CURVE ( 'NONE', #236, #234, #89, .T. ) ;
#162 = DIRECTION ( 'NONE',  ( 1.000000000000000000, 0.000000000000000000, 0.000000000000000000 ) ) ;
#163 = CARTESIAN_POINT ( 'NONE',  ( -3.100000000000000089, 0.000000000000000000, 130.0000000000000000 ) ) ;
#164 = EDGE_CURVE ( 'NONE', #94, #96, #25, .T. ) ;
#165 = DIRECTION ( 'NONE',  ( -0.000000000000000000, -0.000000000000000000, -1.000000000000000000 ) ) ;
#166 = CALENDAR_DATE ( 2022, 7, 7 ) ;
#167 = CIRCLE ( 'NONE', #95, 3.100000000000000089 ) ;
#168 = DIRECTION ( 'NONE',  ( 0.000000000000000000, 0.000000000000000000, 1.000000000000000000 ) ) ;
#169 = SHAPE_DEFINITION_REPRESENTATION ( #244, #147 ) ;
#170 = DIRECTION ( 'NONE',  ( 1.000000000000000000, 0.000000000000000000, 0.000000000000000000 ) ) ;
#171 = DATE_TIME_ROLE ( 'classification_date' ) ;
#172 = DIRECTION ( 'NONE',  ( 0.000000000000000000, 0.000000000000000000, 1.000000000000000000 ) ) ;
#173 = PLANE ( 'NONE',  #119 ) ;
#174 = EDGE_LOOP ( 'NONE', ( #41, #43, #61, #154 ) ) ;
#175 = CARTESIAN_POINT ( 'NONE',  ( 6.000000000000000888, 7.347880794884120722E-16, 5.000000000000000000 ) ) ;
#176 = CIRCLE ( 'NONE', #213, 3.100000000000000089 ) ;
#177 = DIRECTION ( 'NONE',  ( 0.000000000000000000, 0.000000000000000000, 1.000000000000000000 ) ) ;
#178 = ORIENTED_EDGE ( 'NONE', *, *, #164, .T. ) ;
#179 = PERSON_AND_ORGANIZATION ( #190, #198 ) ;
#180 = DIRECTION ( 'NONE',  ( -0.000000000000000000, -0.000000000000000000, -1.000000000000000000 ) ) ;
#181 = APPROVAL_ROLE ( '' ) ;
#182 = DATE_AND_TIME ( #128, #39 ) ;
#183 = APPROVAL_DATE_TIME ( #68, #201 ) ;
#184 = AXIS2_PLACEMENT_3D ( 'NONE', #55, #37, #187 ) ;
#185 = APPROVAL_PERSON_ORGANIZATION ( #179, #201, #181 ) ;
#186 = DIRECTION ( 'NONE',  ( -0.000000000000000000, -0.000000000000000000, -1.000000000000000000 ) ) ;
#187 = DIRECTION ( 'NONE',  ( -1.000000000000000000, 0.000000000000000000, 0.000000000000000000 ) ) ;
#188 = EDGE_CURVE ( 'NONE', #96, #194, #123, .T. ) ;
#189 = CARTESIAN_POINT ( 'NONE',  ( 0.000000000000000000, 0.000000000000000000, 5.000000000000000000 ) ) ;
#190 = PERSON ( 'NEURÈENÝ', 'NEURÈENÝ', 'NEURÈENÝ', ('NEURÈENÝ'), ('NEURÈENÝ'), ('NEURÈENÝ') ) ;
#191 = AXIS2_PLACEMENT_3D ( 'NONE', #104, #49, #219 ) ;
#192 = ORIENTED_EDGE ( 'NONE', *, *, #65, .T. ) ;
#193 = EDGE_LOOP ( 'NONE', ( #22, #75, #120, #214 ) ) ;
#194 = VERTEX_POINT ( 'NONE', #38 ) ;
#195 = SECURITY_CLASSIFICATION ( '', '', #52 ) ;
#196 = VECTOR ( 'NONE', #91, 1000.000000000000000 ) ;
#197 = ORIENTED_EDGE ( 'NONE', *, *, #51, .F. ) ;
#198 = ORGANIZATION ( 'NEURÈENÝ', 'NEURÈENÝ', '' ) ;
#199 = DIRECTION ( 'NONE',  ( 1.000000000000000000, 0.000000000000000000, 0.000000000000000000 ) ) ;
#200 =( NAMED_UNIT ( * ) SI_UNIT ( $, .STERADIAN. ) SOLID_ANGLE_UNIT ( ) );
#201 = APPROVAL ( #3, 'NEURÈENÝ' ) ;
#202 = DATE_AND_TIME ( #36, #92 ) ;
#203 = CARTESIAN_POINT ( 'NONE',  ( 0.000000000000000000, 0.000000000000000000, 0.000000000000000000 ) ) ;
#204 = COORDINATED_UNIVERSAL_TIME_OFFSET ( 1, 0, .AHEAD. ) ;
#205 = DIRECTION ( 'NONE',  ( -1.000000000000000000, 0.000000000000000000, 0.000000000000000000 ) ) ;
#206 = APPROVAL_ROLE ( '' ) ;
#207 = DIRECTION ( 'NONE',  ( 1.000000000000000000, 0.000000000000000000, 0.000000000000000000 ) ) ;
#208 = PERSON_AND_ORGANIZATION_ROLE ( 'design_supplier' ) ;
#209 = FACE_BOUND ( 'NONE', #158, .T. ) ;
#210 = EDGE_CURVE ( 'NONE', #236, #59, #57, .T. ) ;
#211 = CARTESIAN_POINT ( 'NONE',  ( 3.100000000000000089, 3.796405077356794918E-16, 130.0000000000000000 ) ) ;
#212 = PRODUCT_DEFINITION ( 'NEZNÁMÝ', '', #110, #58 ) ;
#213 = AXIS2_PLACEMENT_3D ( 'NONE', #27, #150, #13 ) ;
#214 = ORIENTED_EDGE ( 'NONE', *, *, #144, .T. ) ;
#215 = EDGE_LOOP ( 'NONE', ( #192, #178 ) ) ;
#216 = DIRECTION ( 'NONE',  ( -0.000000000000000000, -0.000000000000000000, -1.000000000000000000 ) ) ;
#217 = ADVANCED_FACE ( 'NONE', ( #209, #133 ), #112, .T. ) ;
#218 = ORIENTED_EDGE ( 'NONE', *, *, #48, .T. ) ;
#219 = DIRECTION ( 'NONE',  ( 1.000000000000000000, 0.000000000000000000, 0.000000000000000000 ) ) ;
#220 = DIRECTION ( 'NONE',  ( -0.000000000000000000, -0.000000000000000000, -1.000000000000000000 ) ) ;
#221 = CARTESIAN_POINT ( 'NONE',  ( 0.000000000000000000, 0.000000000000000000, 5.000000000000000000 ) ) ;
#222 = PERSON_AND_ORGANIZATION ( #190, #198 ) ;
#223 = CYLINDRICAL_SURFACE ( 'NONE', #23, 3.100000000000000089 ) ;
#224 = APPROVAL_ROLE ( '' ) ;
#225 = CARTESIAN_POINT ( 'NONE',  ( 0.000000000000000000, 0.000000000000000000, 0.000000000000000000 ) ) ;
#226 = COORDINATED_UNIVERSAL_TIME_OFFSET ( 1, 0, .AHEAD. ) ;
#227 = CYLINDRICAL_SURFACE ( 'NONE', #184, 6.000000000000000888 ) ;
#228 = DIRECTION ( 'NONE',  ( 1.000000000000000000, 0.000000000000000000, 0.000000000000000000 ) ) ;
#229 = APPROVAL ( #14, 'NEURÈENÝ' ) ;
#230 = VECTOR ( 'NONE', #180, 1000.000000000000000 ) ;
#231 = CC_DESIGN_PERSON_AND_ORGANIZATION_ASSIGNMENT ( #146, #72, ( #212 ) ) ;
#232 = ORIENTED_EDGE ( 'NONE', *, *, #210, .T. ) ;
#233 = FACE_OUTER_BOUND ( 'NONE', #20, .T. ) ;
#234 = VERTEX_POINT ( 'NONE', #131 ) ;
#235 = EDGE_LOOP ( 'NONE', ( #93, #1, #2, #100 ) ) ;
#236 = VERTEX_POINT ( 'NONE', #211 ) ;
#237 =( NAMED_UNIT ( * ) PLANE_ANGLE_UNIT ( ) SI_UNIT ( $, .RADIAN. ) );
#238 = CARTESIAN_POINT ( 'NONE',  ( 3.100000000000000089, 3.796405077356794918E-16, 130.0000000000000000 ) ) ;
#239 = PERSON_AND_ORGANIZATION ( #190, #198 ) ;
#240 = VECTOR ( 'NONE', #220, 1000.000000000000000 ) ;
#241 = PERSON_AND_ORGANIZATION ( #190, #198 ) ;
#242 = PRODUCT_RELATED_PRODUCT_CATEGORY ( 'detail', '', ( #34 ) ) ;
#243 = FACE_OUTER_BOUND ( 'NONE', #135, .T. ) ;
#244 = PRODUCT_DEFINITION_SHAPE ( 'NONE', 'NONE',  #212 ) ;
#245 = DIRECTION ( 'NONE',  ( 1.000000000000000000, 0.000000000000000000, -0.000000000000000000 ) ) ;
#246 = CYLINDRICAL_SURFACE ( 'NONE', #132, 6.000000000000000888 ) ;
#247 = CIRCLE ( 'NONE', #44, 6.000000000000000888 ) ;
#248 = DIRECTION ( 'NONE',  ( 0.000000000000000000, 0.000000000000000000, 1.000000000000000000 ) ) ;
#249 = EDGE_CURVE ( 'NONE', #59, #118, #111, .T. ) ;
#250 = AXIS2_PLACEMENT_3D ( 'NONE', #116, #254, #141 ) ;
#251 = CC_DESIGN_APPROVAL ( #79, ( #110 ) ) ;
#252 = ADVANCED_FACE ( 'NONE', ( #15 ), #173, .T. ) ;
#253 = EDGE_LOOP ( 'NONE', ( #218, #232 ) ) ;
#254 = DIRECTION ( 'NONE',  ( 0.000000000000000000, 0.000000000000000000, 1.000000000000000000 ) ) ;
#255 = ADVANCED_FACE ( 'NONE', ( #149 ), #227, .T. ) ;
ENDSEC;
END-ISO-10303-21;
