ISO-10303-21;
HEADER;
FILE_DESCRIPTION (( 'STEP AP203' ),
    '1' );
FILE_NAME ('5d0e.STEP',
    '2023-02-13T14:50:55',
    ( '' ),
    ( '' ),
    'SwSTEP 2.0',
    'SolidWorks 2019',
    '' );
FILE_SCHEMA (( 'CONFIG_CONTROL_DESIGN' ));
ENDSEC;

DATA;
#1 = DIRECTION ( 'NONE',  ( 0.000000000000000000, 0.000000000000000000, 1.000000000000000000 ) ) ;
#2 = AXIS2_PLACEMENT_3D ( 'NONE', #227, #219, #46 ) ;
#3 = EDGE_LOOP ( 'NONE', ( #174, #67, #190, #106 ) ) ;
#4 = PRODUCT_DEFINITION_FORMATION_WITH_SPECIFIED_SOURCE ( 'LIBOVOLNÝ', '', #135, .NOT_KNOWN. ) ;
#5 = APPROVAL_DATE_TIME ( #108, #9 ) ;
#6 = LINE ( 'NONE', #177, #96 ) ;
#7 = COORDINATED_UNIVERSAL_TIME_OFFSET ( 1, 0, .AHEAD. ) ;
#8 = LINE ( 'NONE', #87, #21 ) ;
#9 = APPROVAL ( #136, 'NEURÈENÝ' ) ;
#10 =( NAMED_UNIT ( * ) SI_UNIT ( $, .STERADIAN. ) SOLID_ANGLE_UNIT ( ) );
#11 = COORDINATED_UNIVERSAL_TIME_OFFSET ( 1, 0, .AHEAD. ) ;
#12 = AXIS2_PLACEMENT_3D ( 'NONE', #181, #93, #49 ) ;
#13 = EDGE_LOOP ( 'NONE', ( #214, #19 ) ) ;
#14 = PERSON_AND_ORGANIZATION_ROLE ( 'classification_officer' ) ;
#15 = COORDINATED_UNIVERSAL_TIME_OFFSET ( 1, 0, .AHEAD. ) ;
#16 = ORIENTED_EDGE ( 'NONE', *, *, #114, .T. ) ;
#17 = CIRCLE ( 'NONE', #12, 6.000000000000000888 ) ;
#18 = AXIS2_PLACEMENT_3D ( 'NONE', #74, #151, #139 ) ;
#19 = ORIENTED_EDGE ( 'NONE', *, *, #132, .F. ) ;
#20 = PERSON_AND_ORGANIZATION_ROLE ( 'creator' ) ;
#21 = VECTOR ( 'NONE', #182, 1000.000000000000000 ) ;
#22 = CARTESIAN_POINT ( 'NONE',  ( 0.000000000000000000, 0.000000000000000000, 5.000000000000000000 ) ) ;
#23 = CC_DESIGN_PERSON_AND_ORGANIZATION_ASSIGNMENT ( #204, #30, ( #135 ) ) ;
#24 = VERTEX_POINT ( 'NONE', #249 ) ;
#25 = CALENDAR_DATE ( 2023, 13, 2 ) ;
#26 = APPROVAL_PERSON_ORGANIZATION ( #164, #9, #244 ) ;
#27 = DESIGN_CONTEXT ( 'detailed design', #94, 'design' ) ;
#28 = APPROVAL_STATUS ( 'not_yet_approved' ) ;
#29 = CARTESIAN_POINT ( 'NONE',  ( 3.500000000000000000, 4.286263797015735609E-16, 400.0000000000000000 ) ) ;
#30 = PERSON_AND_ORGANIZATION_ROLE ( 'design_owner' ) ;
#31 = EDGE_LOOP ( 'NONE', ( #98, #78 ) ) ;
#32 = DATE_TIME_ROLE ( 'classification_date' ) ;
#33 = DIRECTION ( 'NONE',  ( -0.000000000000000000, -0.000000000000000000, -1.000000000000000000 ) ) ;
#34 = AXIS2_PLACEMENT_3D ( 'NONE', #102, #1, #82 ) ;
#35 = CARTESIAN_POINT ( 'NONE',  ( 0.000000000000000000, 0.000000000000000000, 0.000000000000000000 ) ) ;
#36 = ORIENTED_EDGE ( 'NONE', *, *, #217, .T. ) ;
#37 = DIRECTION ( 'NONE',  ( 1.000000000000000000, 0.000000000000000000, 0.000000000000000000 ) ) ;
#38 = CC_DESIGN_DATE_AND_TIME_ASSIGNMENT ( #120, #32, ( #72 ) ) ;
#39 = PERSON_AND_ORGANIZATION_ROLE ( 'design_supplier' ) ;
#40 = VECTOR ( 'NONE', #33, 1000.000000000000000 ) ;
#41 = PLANE ( 'NONE',  #34 ) ;
#42 = EDGE_CURVE ( 'NONE', #99, #208, #234, .T. ) ;
#43 = CC_DESIGN_APPROVAL ( #247, ( #72 ) ) ;
#44 = DIRECTION ( 'NONE',  ( 0.000000000000000000, 0.000000000000000000, 1.000000000000000000 ) ) ;
#45 = DATE_AND_TIME ( #218, #162 ) ;
#46 = DIRECTION ( 'NONE',  ( 1.000000000000000000, 0.000000000000000000, 0.000000000000000000 ) ) ;
#47 = EDGE_CURVE ( 'NONE', #228, #226, #206, .T. ) ;
#48 = DIRECTION ( 'NONE',  ( -1.000000000000000000, 0.000000000000000000, 0.000000000000000000 ) ) ;
#49 = DIRECTION ( 'NONE',  ( 1.000000000000000000, 0.000000000000000000, 0.000000000000000000 ) ) ;
#50 = AXIS2_PLACEMENT_3D ( 'NONE', #140, #225, #238 ) ;
#51 = CC_DESIGN_PERSON_AND_ORGANIZATION_ASSIGNMENT ( #131, #20, ( #4 ) ) ;
#52 = ORIENTED_EDGE ( 'NONE', *, *, #129, .F. ) ;
#53 = PLANE ( 'NONE',  #142 ) ;
#54 = AXIS2_PLACEMENT_3D ( 'NONE', #92, #224, #85 ) ;
#55 = ADVANCED_FACE ( 'NONE', ( #231 ), #53, .F. ) ;
#56 = ORIENTED_EDGE ( 'NONE', *, *, #70, .F. ) ;
#57 = VECTOR ( 'NONE', #115, 1000.000000000000000 ) ;
#58 = PLANE ( 'NONE',  #18 ) ;
#59 = AXIS2_PLACEMENT_3D ( 'NONE', #90, #241, #202 ) ;
#60 = ORIENTED_EDGE ( 'NONE', *, *, #203, .T. ) ;
#61 = DIRECTION ( 'NONE',  ( 1.000000000000000000, 0.000000000000000000, 0.000000000000000000 ) ) ;
#62 = PRODUCT_RELATED_PRODUCT_CATEGORY ( 'detail', '', ( #135 ) ) ;
#63 = DATE_AND_TIME ( #239, #205 ) ;
#64 = CARTESIAN_POINT ( 'NONE',  ( 0.000000000000000000, 0.000000000000000000, 5.000000000000000000 ) ) ;
#65 =( NAMED_UNIT ( * ) PLANE_ANGLE_UNIT ( ) SI_UNIT ( $, .RADIAN. ) );
#66 = DIRECTION ( 'NONE',  ( -0.000000000000000000, -0.000000000000000000, -1.000000000000000000 ) ) ;
#67 = ORIENTED_EDGE ( 'NONE', *, *, #70, .T. ) ;
#68 = AXIS2_PLACEMENT_3D ( 'NONE', #64, #137, #95 ) ;
#69 = SECURITY_CLASSIFICATION_LEVEL ( 'unclassified' ) ;
#70 = EDGE_CURVE ( 'NONE', #148, #185, #6, .T. ) ;
#71 = VERTEX_POINT ( 'NONE', #201 ) ;
#72 = SECURITY_CLASSIFICATION ( '', '', #69 ) ;
#73 = ORIENTED_EDGE ( 'NONE', *, *, #138, .T. ) ;
#74 = CARTESIAN_POINT ( 'NONE',  ( 0.000000000000000000, 0.000000000000000000, 400.0000000000000000 ) ) ;
#75 = AXIS2_PLACEMENT_3D ( 'NONE', #246, #134, #61 ) ;
#76 = FACE_OUTER_BOUND ( 'NONE', #3, .T. ) ;
#77 = APPROVAL_PERSON_ORGANIZATION ( #198, #79, #179 ) ;
#78 = ORIENTED_EDGE ( 'NONE', *, *, #171, .F. ) ;
#79 = APPROVAL ( #28, 'NEURÈENÝ' ) ;
#80 = MANIFOLD_SOLID_BREP ( 'Pøidat vysunutím3', #155 ) ;
#81 = CARTESIAN_POINT ( 'NONE',  ( 6.000000000000000888, 7.347880794884120722E-16, 0.000000000000000000 ) ) ;
#82 = DIRECTION ( 'NONE',  ( 1.000000000000000000, 0.000000000000000000, -0.000000000000000000 ) ) ;
#83 = PERSON_AND_ORGANIZATION ( #252, #172 ) ;
#84 = FACE_OUTER_BOUND ( 'NONE', #91, .T. ) ;
#85 = DIRECTION ( 'NONE',  ( 1.000000000000000000, 0.000000000000000000, 0.000000000000000000 ) ) ;
#86 = FACE_OUTER_BOUND ( 'NONE', #242, .T. ) ;
#87 = CARTESIAN_POINT ( 'NONE',  ( -6.000000000000000888, 0.000000000000000000, 5.000000000000000000 ) ) ;
#88 = CIRCLE ( 'NONE', #2, 6.000000000000000888 ) ;
#89 = ADVANCED_FACE ( 'NONE', ( #84 ), #245, .T. ) ;
#90 = CARTESIAN_POINT ( 'NONE',  ( 0.000000000000000000, 0.000000000000000000, 400.0000000000000000 ) ) ;
#91 = EDGE_LOOP ( 'NONE', ( #130, #196, #233, #146 ) ) ;
#92 = CARTESIAN_POINT ( 'NONE',  ( 0.000000000000000000, 0.000000000000000000, 0.000000000000000000 ) ) ;
#93 = DIRECTION ( 'NONE',  ( 0.000000000000000000, 0.000000000000000000, 1.000000000000000000 ) ) ;
#94 = APPLICATION_CONTEXT ( 'configuration controlled 3d designs of mechanical parts and assemblies' ) ;
#95 = DIRECTION ( 'NONE',  ( -1.000000000000000000, 0.000000000000000000, 0.000000000000000000 ) ) ;
#96 = VECTOR ( 'NONE', #223, 1000.000000000000000 ) ;
#97 = CARTESIAN_POINT ( 'NONE',  ( 3.500000000000000000, 4.286263797015735609E-16, 400.0000000000000000 ) ) ;
#98 = ORIENTED_EDGE ( 'NONE', *, *, #138, .F. ) ;
#99 = VERTEX_POINT ( 'NONE', #112 ) ;
#100 = LOCAL_TIME ( 15, 50, 55.00000000000000000, #11 ) ;
#101 = CARTESIAN_POINT ( 'NONE',  ( -3.500000000000000000, 0.000000000000000000, 400.0000000000000000 ) ) ;
#102 = CARTESIAN_POINT ( 'NONE',  ( 0.000000000000000000, 0.000000000000000000, 5.000000000000000000 ) ) ;
#103 = AXIS2_PLACEMENT_3D ( 'NONE', #143, #66, #48 ) ;
#104 = ORIENTED_EDGE ( 'NONE', *, *, #229, .T. ) ;
#105 = EDGE_CURVE ( 'NONE', #148, #24, #17, .T. ) ;
#106 = ORIENTED_EDGE ( 'NONE', *, *, #203, .F. ) ;
#107 = CIRCLE ( 'NONE', #220, 6.000000000000000888 ) ;
#108 = DATE_AND_TIME ( #25, #110 ) ;
#109 = ADVANCED_FACE ( 'NONE', ( #159 ), #183, .T. ) ;
#110 = LOCAL_TIME ( 15, 50, 55.00000000000000000, #125 ) ;
#111 = DIRECTION ( 'NONE',  ( 1.000000000000000000, 0.000000000000000000, 0.000000000000000000 ) ) ;
#112 = CARTESIAN_POINT ( 'NONE',  ( -3.500000000000000000, 0.000000000000000000, 400.0000000000000000 ) ) ;
#113 = APPLICATION_PROTOCOL_DEFINITION ( 'international standard', 'config_control_design', 1994, #94 ) ;
#114 = EDGE_CURVE ( 'NONE', #24, #148, #88, .T. ) ;
#115 = DIRECTION ( 'NONE',  ( -0.000000000000000000, -0.000000000000000000, -1.000000000000000000 ) ) ;
#116 = DIRECTION ( 'NONE',  ( 0.000000000000000000, 0.000000000000000000, 1.000000000000000000 ) ) ;
#117 = ORIENTED_EDGE ( 'NONE', *, *, #129, .T. ) ;
#118 = ADVANCED_FACE ( 'NONE', ( #86 ), #240, .T. ) ;
#119 = CARTESIAN_POINT ( 'NONE',  ( 0.000000000000000000, 0.000000000000000000, 5.000000000000000000 ) ) ;
#120 = DATE_AND_TIME ( #167, #100 ) ;
#121 = DIRECTION ( 'NONE',  ( -0.000000000000000000, -0.000000000000000000, -1.000000000000000000 ) ) ;
#122 =( GEOMETRIC_REPRESENTATION_CONTEXT ( 3 ) GLOBAL_UNCERTAINTY_ASSIGNED_CONTEXT ( ( #178 ) ) GLOBAL_UNIT_ASSIGNED_CONTEXT ( ( #216, #65, #10 ) ) REPRESENTATION_CONTEXT ( 'NONE', 'WORKASPACE' ) );
#123 = CARTESIAN_POINT ( 'NONE',  ( 6.000000000000000888, 7.347880794884120722E-16, 5.000000000000000000 ) ) ;
#124 = CC_DESIGN_PERSON_AND_ORGANIZATION_ASSIGNMENT ( #147, #39, ( #4 ) ) ;
#125 = COORDINATED_UNIVERSAL_TIME_OFFSET ( 1, 0, .AHEAD. ) ;
#126 = DATE_TIME_ROLE ( 'creation_date' ) ;
#127 = ADVANCED_BREP_SHAPE_REPRESENTATION ( '5d0e', ( #80, #54 ), #122 ) ;
#128 = APPLICATION_CONTEXT ( 'configuration controlled 3d designs of mechanical parts and assemblies' ) ;
#129 = EDGE_CURVE ( 'NONE', #99, #228, #189, .T. ) ;
#130 = ORIENTED_EDGE ( 'NONE', *, *, #217, .F. ) ;
#131 = PERSON_AND_ORGANIZATION ( #252, #172 ) ;
#132 = EDGE_CURVE ( 'NONE', #185, #71, #107, .T. ) ;
#133 = APPROVAL_DATE_TIME ( #63, #79 ) ;
#134 = DIRECTION ( 'NONE',  ( 0.000000000000000000, 0.000000000000000000, 1.000000000000000000 ) ) ;
#135 = PRODUCT ( '5d0e', '5d0e', '', ( #243 ) ) ;
#136 = APPROVAL_STATUS ( 'not_yet_approved' ) ;
#137 = DIRECTION ( 'NONE',  ( -0.000000000000000000, -0.000000000000000000, -1.000000000000000000 ) ) ;
#138 = EDGE_CURVE ( 'NONE', #208, #226, #149, .T. ) ;
#139 = DIRECTION ( 'NONE',  ( 1.000000000000000000, 0.000000000000000000, -0.000000000000000000 ) ) ;
#140 = CARTESIAN_POINT ( 'NONE',  ( 0.000000000000000000, 0.000000000000000000, 400.0000000000000000 ) ) ;
#141 = ORIENTED_EDGE ( 'NONE', *, *, #42, .T. ) ;
#142 = AXIS2_PLACEMENT_3D ( 'NONE', #35, #116, #150 ) ;
#143 = CARTESIAN_POINT ( 'NONE',  ( 0.000000000000000000, 0.000000000000000000, 400.0000000000000000 ) ) ;
#144 = CC_DESIGN_PERSON_AND_ORGANIZATION_ASSIGNMENT ( #248, #14, ( #72 ) ) ;
#145 = CC_DESIGN_SECURITY_CLASSIFICATION ( #72, ( #4 ) ) ;
#146 = ORIENTED_EDGE ( 'NONE', *, *, #42, .F. ) ;
#147 = PERSON_AND_ORGANIZATION ( #252, #172 ) ;
#148 = VERTEX_POINT ( 'NONE', #123 ) ;
#149 = CIRCLE ( 'NONE', #251, 3.500000000000000000 ) ;
#150 = DIRECTION ( 'NONE',  ( 1.000000000000000000, 0.000000000000000000, -0.000000000000000000 ) ) ;
#151 = DIRECTION ( 'NONE',  ( 0.000000000000000000, 0.000000000000000000, 1.000000000000000000 ) ) ;
#152 = DIRECTION ( 'NONE',  ( 0.000000000000000000, 0.000000000000000000, 1.000000000000000000 ) ) ;
#153 = FACE_OUTER_BOUND ( 'NONE', #193, .T. ) ;
#154 = ADVANCED_FACE ( 'NONE', ( #255, #235 ), #41, .T. ) ;
#155 = CLOSED_SHELL ( 'NONE', ( #89, #161, #118, #154, #55, #109, #191 ) ) ;
#156 = ORIENTED_EDGE ( 'NONE', *, *, #47, .F. ) ;
#157 = CYLINDRICAL_SURFACE ( 'NONE', #166, 6.000000000000000888 ) ;
#158 = CARTESIAN_POINT ( 'NONE',  ( 0.000000000000000000, 0.000000000000000000, 0.000000000000000000 ) ) ;
#159 = FACE_OUTER_BOUND ( 'NONE', #163, .T. ) ;
#160 = COORDINATED_UNIVERSAL_TIME_OFFSET ( 1, 0, .AHEAD. ) ;
#161 = ADVANCED_FACE ( 'NONE', ( #76 ), #157, .T. ) ;
#162 = LOCAL_TIME ( 15, 50, 55.00000000000000000, #7 ) ;
#163 = EDGE_LOOP ( 'NONE', ( #156, #52, #141, #73 ) ) ;
#164 = PERSON_AND_ORGANIZATION ( #252, #172 ) ;
#165 = APPROVAL_STATUS ( 'not_yet_approved' ) ;
#166 = AXIS2_PLACEMENT_3D ( 'NONE', #119, #121, #195 ) ;
#167 = CALENDAR_DATE ( 2023, 13, 2 ) ;
#168 = ORIENTED_EDGE ( 'NONE', *, *, #105, .T. ) ;
#169 = CC_DESIGN_DATE_AND_TIME_ASSIGNMENT ( #45, #126, ( #199 ) ) ;
#170 = AXIS2_PLACEMENT_3D ( 'NONE', #22, #192, #250 ) ;
#171 = EDGE_CURVE ( 'NONE', #226, #208, #184, .T. ) ;
#172 = ORGANIZATION ( 'NEURÈENÝ', 'NEURÈENÝ', '' ) ;
#173 = DIRECTION ( 'NONE',  ( 0.000000000000000000, 0.000000000000000000, 1.000000000000000000 ) ) ;
#174 = ORIENTED_EDGE ( 'NONE', *, *, #105, .F. ) ;
#175 = CARTESIAN_POINT ( 'NONE',  ( 3.500000000000000000, 4.286263797015735609E-16, 5.000000000000000000 ) ) ;
#176 = CIRCLE ( 'NONE', #232, 6.000000000000000888 ) ;
#177 = CARTESIAN_POINT ( 'NONE',  ( 6.000000000000000888, 7.347880794884120722E-16, 5.000000000000000000 ) ) ;
#178 = UNCERTAINTY_MEASURE_WITH_UNIT (LENGTH_MEASURE( 1.000000000000000082E-05 ), #216, 'distance_accuracy_value', 'NONE');
#179 = APPROVAL_ROLE ( '' ) ;
#180 = CARTESIAN_POINT ( 'NONE',  ( -3.500000000000000000, 0.000000000000000000, 5.000000000000000000 ) ) ;
#181 = CARTESIAN_POINT ( 'NONE',  ( 0.000000000000000000, 0.000000000000000000, 5.000000000000000000 ) ) ;
#182 = DIRECTION ( 'NONE',  ( -0.000000000000000000, -0.000000000000000000, -1.000000000000000000 ) ) ;
#183 = CYLINDRICAL_SURFACE ( 'NONE', #50, 3.500000000000000000 ) ;
#184 = CIRCLE ( 'NONE', #170, 3.500000000000000000 ) ;
#185 = VERTEX_POINT ( 'NONE', #81 ) ;
#186 = CC_DESIGN_PERSON_AND_ORGANIZATION_ASSIGNMENT ( #83, #237, ( #199 ) ) ;
#187 = DATE_AND_TIME ( #213, #221 ) ;
#188 = APPROVAL_ROLE ( '' ) ;
#189 = CIRCLE ( 'NONE', #75, 3.500000000000000000 ) ;
#190 = ORIENTED_EDGE ( 'NONE', *, *, #132, .T. ) ;
#191 = ADVANCED_FACE ( 'NONE', ( #153 ), #58, .T. ) ;
#192 = DIRECTION ( 'NONE',  ( 0.000000000000000000, 0.000000000000000000, 1.000000000000000000 ) ) ;
#193 = EDGE_LOOP ( 'NONE', ( #117, #36 ) ) ;
#194 = PERSON_AND_ORGANIZATION ( #252, #172 ) ;
#195 = DIRECTION ( 'NONE',  ( -1.000000000000000000, 0.000000000000000000, 0.000000000000000000 ) ) ;
#196 = ORIENTED_EDGE ( 'NONE', *, *, #47, .T. ) ;
#197 = PRODUCT_DEFINITION_SHAPE ( 'NONE', 'NONE',  #199 ) ;
#198 = PERSON_AND_ORGANIZATION ( #252, #172 ) ;
#199 = PRODUCT_DEFINITION ( 'NEZNÁMÝ', '', #4, #27 ) ;
#200 = APPLICATION_PROTOCOL_DEFINITION ( 'international standard', 'config_control_design', 1994, #128 ) ;
#201 = CARTESIAN_POINT ( 'NONE',  ( -6.000000000000000888, 0.000000000000000000, 0.000000000000000000 ) ) ;
#202 = DIRECTION ( 'NONE',  ( 1.000000000000000000, 0.000000000000000000, 0.000000000000000000 ) ) ;
#203 = EDGE_CURVE ( 'NONE', #24, #71, #8, .T. ) ;
#204 = PERSON_AND_ORGANIZATION ( #252, #172 ) ;
#205 = LOCAL_TIME ( 15, 50, 55.00000000000000000, #160 ) ;
#206 = LINE ( 'NONE', #97, #40 ) ;
#207 = SHAPE_DEFINITION_REPRESENTATION ( #197, #127 ) ;
#208 = VERTEX_POINT ( 'NONE', #180 ) ;
#209 = CC_DESIGN_APPROVAL ( #79, ( #4 ) ) ;
#210 = EDGE_LOOP ( 'NONE', ( #16, #168 ) ) ;
#211 = DIRECTION ( 'NONE',  ( 1.000000000000000000, 0.000000000000000000, 0.000000000000000000 ) ) ;
#212 = CARTESIAN_POINT ( 'NONE',  ( 0.000000000000000000, 0.000000000000000000, 5.000000000000000000 ) ) ;
#213 = CALENDAR_DATE ( 2023, 13, 2 ) ;
#214 = ORIENTED_EDGE ( 'NONE', *, *, #229, .F. ) ;
#215 = CIRCLE ( 'NONE', #59, 3.500000000000000000 ) ;
#216 =( LENGTH_UNIT ( ) NAMED_UNIT ( * ) SI_UNIT ( .MILLI., .METRE. ) );
#217 = EDGE_CURVE ( 'NONE', #228, #99, #215, .T. ) ;
#218 = CALENDAR_DATE ( 2023, 13, 2 ) ;
#219 = DIRECTION ( 'NONE',  ( 0.000000000000000000, 0.000000000000000000, 1.000000000000000000 ) ) ;
#220 = AXIS2_PLACEMENT_3D ( 'NONE', #254, #152, #211 ) ;
#221 = LOCAL_TIME ( 15, 50, 55.00000000000000000, #15 ) ;
#222 = CC_DESIGN_APPROVAL ( #9, ( #199 ) ) ;
#223 = DIRECTION ( 'NONE',  ( -0.000000000000000000, -0.000000000000000000, -1.000000000000000000 ) ) ;
#224 = DIRECTION ( 'NONE',  ( 0.000000000000000000, 0.000000000000000000, 1.000000000000000000 ) ) ;
#225 = DIRECTION ( 'NONE',  ( -0.000000000000000000, -0.000000000000000000, -1.000000000000000000 ) ) ;
#226 = VERTEX_POINT ( 'NONE', #175 ) ;
#227 = CARTESIAN_POINT ( 'NONE',  ( 0.000000000000000000, 0.000000000000000000, 5.000000000000000000 ) ) ;
#228 = VERTEX_POINT ( 'NONE', #29 ) ;
#229 = EDGE_CURVE ( 'NONE', #71, #185, #176, .T. ) ;
#230 = APPROVAL_DATE_TIME ( #187, #247 ) ;
#231 = FACE_OUTER_BOUND ( 'NONE', #13, .T. ) ;
#232 = AXIS2_PLACEMENT_3D ( 'NONE', #158, #44, #111 ) ;
#233 = ORIENTED_EDGE ( 'NONE', *, *, #171, .T. ) ;
#234 = LINE ( 'NONE', #101, #57 ) ;
#235 = FACE_OUTER_BOUND ( 'NONE', #210, .T. ) ;
#236 = APPROVAL_PERSON_ORGANIZATION ( #194, #247, #188 ) ;
#237 = PERSON_AND_ORGANIZATION_ROLE ( 'creator' ) ;
#238 = DIRECTION ( 'NONE',  ( -1.000000000000000000, 0.000000000000000000, 0.000000000000000000 ) ) ;
#239 = CALENDAR_DATE ( 2023, 13, 2 ) ;
#240 = CYLINDRICAL_SURFACE ( 'NONE', #68, 6.000000000000000888 ) ;
#241 = DIRECTION ( 'NONE',  ( 0.000000000000000000, 0.000000000000000000, 1.000000000000000000 ) ) ;
#242 = EDGE_LOOP ( 'NONE', ( #56, #253, #60, #104 ) ) ;
#243 = MECHANICAL_CONTEXT ( 'NONE', #128, 'mechanical' ) ;
#244 = APPROVAL_ROLE ( '' ) ;
#245 = CYLINDRICAL_SURFACE ( 'NONE', #103, 3.500000000000000000 ) ;
#246 = CARTESIAN_POINT ( 'NONE',  ( 0.000000000000000000, 0.000000000000000000, 400.0000000000000000 ) ) ;
#247 = APPROVAL ( #165, 'NEURÈENÝ' ) ;
#248 = PERSON_AND_ORGANIZATION ( #252, #172 ) ;
#249 = CARTESIAN_POINT ( 'NONE',  ( -6.000000000000000888, 0.000000000000000000, 5.000000000000000000 ) ) ;
#250 = DIRECTION ( 'NONE',  ( 1.000000000000000000, 0.000000000000000000, 0.000000000000000000 ) ) ;
#251 = AXIS2_PLACEMENT_3D ( 'NONE', #212, #173, #37 ) ;
#252 = PERSON ( 'NEURÈENÝ', 'NEURÈENÝ', 'NEURÈENÝ', ('NEURÈENÝ'), ('NEURÈENÝ'), ('NEURÈENÝ') ) ;
#253 = ORIENTED_EDGE ( 'NONE', *, *, #114, .F. ) ;
#254 = CARTESIAN_POINT ( 'NONE',  ( 0.000000000000000000, 0.000000000000000000, 0.000000000000000000 ) ) ;
#255 = FACE_BOUND ( 'NONE', #31, .T. ) ;
ENDSEC;
END-ISO-10303-21;
