ISO-10303-21;
HEADER;
FILE_DESCRIPTION (( 'STEP AP203' ),
    '1' );
FILE_NAME ('3b73.STEP',
    '2023-02-13T10:43:31',
    ( '' ),
    ( '' ),
    'SwSTEP 2.0',
    'SolidWorks 2019',
    '' );
FILE_SCHEMA (( 'CONFIG_CONTROL_DESIGN' ));
ENDSEC;

DATA;
#1 = PRODUCT_RELATED_PRODUCT_CATEGORY ( 'detail', '', ( #250 ) ) ;
#2 = DIRECTION ( 'NONE',  ( 1.000000000000000000, 0.000000000000000000, -0.000000000000000000 ) ) ;
#3 = LINE ( 'NONE', #240, #196 ) ;
#4 = AXIS2_PLACEMENT_3D ( 'NONE', #239, #65, #179 ) ;
#5 = CLOSED_SHELL ( 'NONE', ( #7, #168, #253, #39, #73, #209, #139 ) ) ;
#6 = DIRECTION ( 'NONE',  ( -0.000000000000000000, -0.000000000000000000, -1.000000000000000000 ) ) ;
#7 = ADVANCED_FACE ( 'NONE', ( #246 ), #126, .T. ) ;
#8 = CYLINDRICAL_SURFACE ( 'NONE', #135, 7.000000000000000000 ) ;
#9 = CALENDAR_DATE ( 2023, 13, 2 ) ;
#10 = PERSON_AND_ORGANIZATION_ROLE ( 'design_owner' ) ;
#11 = EDGE_LOOP ( 'NONE', ( #194, #33, #72, #233 ) ) ;
#12 = APPROVAL_DATE_TIME ( #210, #71 ) ;
#13 = AXIS2_PLACEMENT_3D ( 'NONE', #225, #134, #2 ) ;
#14 = VERTEX_POINT ( 'NONE', #129 ) ;
#15 = ORIENTED_EDGE ( 'NONE', *, *, #25, .T. ) ;
#16 = CARTESIAN_POINT ( 'NONE',  ( 7.000000000000000000, 8.572527594031473190E-16, 160.0000000000000000 ) ) ;
#17 = DATE_AND_TIME ( #235, #226 ) ;
#18 = CARTESIAN_POINT ( 'NONE',  ( 7.000000000000000000, 8.572527594031473190E-16, 7.000000000000000000 ) ) ;
#19 = LOCAL_TIME ( 11, 43, 31.00000000000000000, #140 ) ;
#20 = AXIS2_PLACEMENT_3D ( 'NONE', #114, #64, #198 ) ;
#21 = CARTESIAN_POINT ( 'NONE',  ( -11.00000000000000000, 0.000000000000000000, 0.000000000000000000 ) ) ;
#22 = PERSON_AND_ORGANIZATION ( #75, #130 ) ;
#23 = CARTESIAN_POINT ( 'NONE',  ( 0.000000000000000000, 0.000000000000000000, 0.000000000000000000 ) ) ;
#24 = DIRECTION ( 'NONE',  ( -0.000000000000000000, -0.000000000000000000, -1.000000000000000000 ) ) ;
#25 = EDGE_CURVE ( 'NONE', #54, #14, #98, .T. ) ;
#26 = APPROVAL_PERSON_ORGANIZATION ( #31, #71, #107 ) ;
#27 =( NAMED_UNIT ( * ) PLANE_ANGLE_UNIT ( ) SI_UNIT ( $, .RADIAN. ) );
#28 = VECTOR ( 'NONE', #224, 1000.000000000000000 ) ;
#29 = APPLICATION_PROTOCOL_DEFINITION ( 'international standard', 'config_control_design', 1994, #121 ) ;
#30 = ORIENTED_EDGE ( 'NONE', *, *, #205, .F. ) ;
#31 = PERSON_AND_ORGANIZATION ( #75, #130 ) ;
#32 = CC_DESIGN_APPROVAL ( #71, ( #110 ) ) ;
#33 = ORIENTED_EDGE ( 'NONE', *, *, #242, .F. ) ;
#34 = ORIENTED_EDGE ( 'NONE', *, *, #190, .T. ) ;
#35 = FACE_OUTER_BOUND ( 'NONE', #248, .T. ) ;
#36 = DIRECTION ( 'NONE',  ( 0.000000000000000000, 0.000000000000000000, 1.000000000000000000 ) ) ;
#37 = AXIS2_PLACEMENT_3D ( 'NONE', #23, #227, #181 ) ;
#38 = COORDINATED_UNIVERSAL_TIME_OFFSET ( 1, 0, .AHEAD. ) ;
#39 = ADVANCED_FACE ( 'NONE', ( #57, #35 ), #82, .T. ) ;
#40 = AXIS2_PLACEMENT_3D ( 'NONE', #116, #175, #228 ) ;
#41 = FACE_OUTER_BOUND ( 'NONE', #105, .T. ) ;
#42 = APPLICATION_CONTEXT ( 'configuration controlled 3d designs of mechanical parts and assemblies' ) ;
#43 = CARTESIAN_POINT ( 'NONE',  ( 0.000000000000000000, 0.000000000000000000, 7.000000000000000000 ) ) ;
#44 = CC_DESIGN_APPROVAL ( #47, ( #80 ) ) ;
#45 = CC_DESIGN_PERSON_AND_ORGANIZATION_ASSIGNMENT ( #145, #10, ( #250 ) ) ;
#46 = FACE_OUTER_BOUND ( 'NONE', #91, .T. ) ;
#47 = APPROVAL ( #79, 'NEURÈENÝ' ) ;
#48 = DIRECTION ( 'NONE',  ( 1.000000000000000000, 0.000000000000000000, 0.000000000000000000 ) ) ;
#49 = VERTEX_POINT ( 'NONE', #21 ) ;
#50 = CC_DESIGN_APPROVAL ( #199, ( #153 ) ) ;
#51 = VECTOR ( 'NONE', #155, 1000.000000000000000 ) ;
#52 = ORIENTED_EDGE ( 'NONE', *, *, #242, .T. ) ;
#53 = EDGE_CURVE ( 'NONE', #56, #231, #55, .T. ) ;
#54 = VERTEX_POINT ( 'NONE', #222 ) ;
#55 = CIRCLE ( 'NONE', #214, 7.000000000000000000 ) ;
#56 = VERTEX_POINT ( 'NONE', #16 ) ;
#57 = FACE_BOUND ( 'NONE', #147, .T. ) ;
#58 = ADVANCED_BREP_SHAPE_REPRESENTATION ( '3b73', ( #164, #69 ), #93 ) ;
#59 = CC_DESIGN_SECURITY_CLASSIFICATION ( #80, ( #153 ) ) ;
#60 = DATE_TIME_ROLE ( 'creation_date' ) ;
#61 = CIRCLE ( 'NONE', #197, 11.00000000000000000 ) ;
#62 = CARTESIAN_POINT ( 'NONE',  ( 0.000000000000000000, 0.000000000000000000, 0.000000000000000000 ) ) ;
#63 = CC_DESIGN_PERSON_AND_ORGANIZATION_ASSIGNMENT ( #188, #89, ( #110 ) ) ;
#64 = DIRECTION ( 'NONE',  ( 0.000000000000000000, 0.000000000000000000, 1.000000000000000000 ) ) ;
#65 = DIRECTION ( 'NONE',  ( 0.000000000000000000, 0.000000000000000000, 1.000000000000000000 ) ) ;
#66 = AXIS2_PLACEMENT_3D ( 'NONE', #123, #67, #122 ) ;
#67 = DIRECTION ( 'NONE',  ( 0.000000000000000000, 0.000000000000000000, 1.000000000000000000 ) ) ;
#68 = CARTESIAN_POINT ( 'NONE',  ( -11.00000000000000000, 0.000000000000000000, 7.000000000000000000 ) ) ;
#69 = AXIS2_PLACEMENT_3D ( 'NONE', #249, #247, #232 ) ;
#70 = CARTESIAN_POINT ( 'NONE',  ( -11.00000000000000000, 0.000000000000000000, 7.000000000000000000 ) ) ;
#71 = APPROVAL ( #104, 'NEURÈENÝ' ) ;
#72 = ORIENTED_EDGE ( 'NONE', *, *, #161, .T. ) ;
#73 = ADVANCED_FACE ( 'NONE', ( #96 ), #92, .F. ) ;
#74 = VERTEX_POINT ( 'NONE', #18 ) ;
#75 = PERSON ( 'NEURÈENÝ', 'NEURÈENÝ', 'NEURÈENÝ', ('NEURÈENÝ'), ('NEURÈENÝ'), ('NEURÈENÝ') ) ;
#76 = VERTEX_POINT ( 'NONE', #251 ) ;
#77 = AXIS2_PLACEMENT_3D ( 'NONE', #62, #172, #195 ) ;
#78 = APPROVAL_DATE_TIME ( #215, #47 ) ;
#79 = APPROVAL_STATUS ( 'not_yet_approved' ) ;
#80 = SECURITY_CLASSIFICATION ( '', '', #237 ) ;
#81 = APPROVAL_DATE_TIME ( #95, #199 ) ;
#82 = PLANE ( 'NONE',  #20 ) ;
#83 = CARTESIAN_POINT ( 'NONE',  ( -7.000000000000000000, 0.000000000000000000, 160.0000000000000000 ) ) ;
#84 = DIRECTION ( 'NONE',  ( -1.000000000000000000, 0.000000000000000000, 0.000000000000000000 ) ) ;
#85 = DIRECTION ( 'NONE',  ( -1.000000000000000000, 0.000000000000000000, 0.000000000000000000 ) ) ;
#86 = DIRECTION ( 'NONE',  ( -0.000000000000000000, -0.000000000000000000, -1.000000000000000000 ) ) ;
#87 = CALENDAR_DATE ( 2023, 13, 2 ) ;
#88 = EDGE_CURVE ( 'NONE', #14, #49, #61, .T. ) ;
#89 = PERSON_AND_ORGANIZATION_ROLE ( 'creator' ) ;
#90 = ORIENTED_EDGE ( 'NONE', *, *, #223, .F. ) ;
#91 = EDGE_LOOP ( 'NONE', ( #162, #15, #212, #170 ) ) ;
#92 = PLANE ( 'NONE',  #77 ) ;
#93 =( GEOMETRIC_REPRESENTATION_CONTEXT ( 3 ) GLOBAL_UNCERTAINTY_ASSIGNED_CONTEXT ( ( #218 ) ) GLOBAL_UNIT_ASSIGNED_CONTEXT ( ( #137, #27, #182 ) ) REPRESENTATION_CONTEXT ( 'NONE', 'WORKASPACE' ) );
#94 = EDGE_CURVE ( 'NONE', #231, #56, #150, .T. ) ;
#95 = DATE_AND_TIME ( #174, #229 ) ;
#96 = FACE_OUTER_BOUND ( 'NONE', #141, .T. ) ;
#97 = PERSON_AND_ORGANIZATION ( #75, #130 ) ;
#98 = LINE ( 'NONE', #178, #51 ) ;
#99 = AXIS2_PLACEMENT_3D ( 'NONE', #103, #159, #208 ) ;
#100 = CARTESIAN_POINT ( 'NONE',  ( 0.000000000000000000, 0.000000000000000000, 7.000000000000000000 ) ) ;
#101 = CARTESIAN_POINT ( 'NONE',  ( 0.000000000000000000, 0.000000000000000000, 7.000000000000000000 ) ) ;
#102 = EDGE_CURVE ( 'NONE', #54, #109, #252, .T. ) ;
#103 = CARTESIAN_POINT ( 'NONE',  ( 0.000000000000000000, 0.000000000000000000, 7.000000000000000000 ) ) ;
#104 = APPROVAL_STATUS ( 'not_yet_approved' ) ;
#105 = EDGE_LOOP ( 'NONE', ( #146, #112, #216, #230 ) ) ;
#106 = CC_DESIGN_DATE_AND_TIME_ASSIGNMENT ( #165, #60, ( #110 ) ) ;
#107 = APPROVAL_ROLE ( '' ) ;
#108 = CARTESIAN_POINT ( 'NONE',  ( 0.000000000000000000, 0.000000000000000000, 160.0000000000000000 ) ) ;
#109 = VERTEX_POINT ( 'NONE', #70 ) ;
#110 = PRODUCT_DEFINITION ( 'NEZNÁMÝ', '', #153, #118 ) ;
#111 = PERSON_AND_ORGANIZATION ( #75, #130 ) ;
#112 = ORIENTED_EDGE ( 'NONE', *, *, #94, .F. ) ;
#113 = SHAPE_DEFINITION_REPRESENTATION ( #217, #58 ) ;
#114 = CARTESIAN_POINT ( 'NONE',  ( 0.000000000000000000, 0.000000000000000000, 7.000000000000000000 ) ) ;
#115 = PERSON_AND_ORGANIZATION_ROLE ( 'classification_officer' ) ;
#116 = CARTESIAN_POINT ( 'NONE',  ( 0.000000000000000000, 0.000000000000000000, 160.0000000000000000 ) ) ;
#117 = CALENDAR_DATE ( 2023, 13, 2 ) ;
#118 = DESIGN_CONTEXT ( 'detailed design', #121, 'design' ) ;
#119 = CC_DESIGN_PERSON_AND_ORGANIZATION_ASSIGNMENT ( #111, #221, ( #153 ) ) ;
#120 = CARTESIAN_POINT ( 'NONE',  ( 0.000000000000000000, 0.000000000000000000, 160.0000000000000000 ) ) ;
#121 = APPLICATION_CONTEXT ( 'configuration controlled 3d designs of mechanical parts and assemblies' ) ;
#122 = DIRECTION ( 'NONE',  ( 1.000000000000000000, 0.000000000000000000, 0.000000000000000000 ) ) ;
#123 = CARTESIAN_POINT ( 'NONE',  ( 0.000000000000000000, 0.000000000000000000, 7.000000000000000000 ) ) ;
#124 = CC_DESIGN_PERSON_AND_ORGANIZATION_ASSIGNMENT ( #97, #115, ( #80 ) ) ;
#125 = ORIENTED_EDGE ( 'NONE', *, *, #156, .F. ) ;
#126 = CYLINDRICAL_SURFACE ( 'NONE', #167, 7.000000000000000000 ) ;
#127 = CC_DESIGN_PERSON_AND_ORGANIZATION_ASSIGNMENT ( #254, #131, ( #153 ) ) ;
#128 = CIRCLE ( 'NONE', #4, 7.000000000000000000 ) ;
#129 = CARTESIAN_POINT ( 'NONE',  ( 11.00000000000000000, 1.347111479062088405E-15, 0.000000000000000000 ) ) ;
#130 = ORGANIZATION ( 'NEURÈENÝ', 'NEURÈENÝ', '' ) ;
#131 = PERSON_AND_ORGANIZATION_ROLE ( 'creator' ) ;
#132 = DIRECTION ( 'NONE',  ( 0.000000000000000000, 0.000000000000000000, 1.000000000000000000 ) ) ;
#133 = DIRECTION ( 'NONE',  ( 1.000000000000000000, 0.000000000000000000, 0.000000000000000000 ) ) ;
#134 = DIRECTION ( 'NONE',  ( 0.000000000000000000, 0.000000000000000000, 1.000000000000000000 ) ) ;
#135 = AXIS2_PLACEMENT_3D ( 'NONE', #120, #86, #203 ) ;
#136 = FACE_OUTER_BOUND ( 'NONE', #244, .T. ) ;
#137 =( LENGTH_UNIT ( ) NAMED_UNIT ( * ) SI_UNIT ( .MILLI., .METRE. ) );
#138 = CARTESIAN_POINT ( 'NONE',  ( -7.000000000000000000, 0.000000000000000000, 160.0000000000000000 ) ) ;
#139 = ADVANCED_FACE ( 'NONE', ( #136 ), #180, .T. ) ;
#140 = COORDINATED_UNIVERSAL_TIME_OFFSET ( 1, 0, .AHEAD. ) ;
#141 = EDGE_LOOP ( 'NONE', ( #90, #166 ) ) ;
#142 = CIRCLE ( 'NONE', #144, 7.000000000000000000 ) ;
#143 = EDGE_LOOP ( 'NONE', ( #169, #149, #34, #125 ) ) ;
#144 = AXIS2_PLACEMENT_3D ( 'NONE', #100, #184, #48 ) ;
#145 = PERSON_AND_ORGANIZATION ( #75, #130 ) ;
#146 = ORIENTED_EDGE ( 'NONE', *, *, #236, .F. ) ;
#147 = EDGE_LOOP ( 'NONE', ( #30, #193 ) ) ;
#148 = CC_DESIGN_DATE_AND_TIME_ASSIGNMENT ( #17, #176, ( #80 ) ) ;
#149 = ORIENTED_EDGE ( 'NONE', *, *, #236, .T. ) ;
#150 = CIRCLE ( 'NONE', #40, 7.000000000000000000 ) ;
#151 = APPROVAL_ROLE ( '' ) ;
#152 = DIRECTION ( 'NONE',  ( 1.000000000000000000, 0.000000000000000000, 0.000000000000000000 ) ) ;
#153 = PRODUCT_DEFINITION_FORMATION_WITH_SPECIFIED_SOURCE ( 'LIBOVOLNÝ', '', #250, .NOT_KNOWN. ) ;
#154 = VECTOR ( 'NONE', #24, 1000.000000000000000 ) ;
#155 = DIRECTION ( 'NONE',  ( -0.000000000000000000, -0.000000000000000000, -1.000000000000000000 ) ) ;
#156 = EDGE_CURVE ( 'NONE', #231, #76, #160, .T. ) ;
#157 = DIRECTION ( 'NONE',  ( -0.000000000000000000, -0.000000000000000000, -1.000000000000000000 ) ) ;
#158 = LINE ( 'NONE', #68, #154 ) ;
#159 = DIRECTION ( 'NONE',  ( 0.000000000000000000, 0.000000000000000000, 1.000000000000000000 ) ) ;
#160 = LINE ( 'NONE', #138, #28 ) ;
#161 = EDGE_CURVE ( 'NONE', #109, #49, #158, .T. ) ;
#162 = ORIENTED_EDGE ( 'NONE', *, *, #102, .F. ) ;
#163 = APPROVAL_PERSON_ORGANIZATION ( #200, #47, #177 ) ;
#164 = MANIFOLD_SOLID_BREP ( 'Pøidat vysunutím3', #5 ) ;
#165 = DATE_AND_TIME ( #87, #207 ) ;
#166 = ORIENTED_EDGE ( 'NONE', *, *, #88, .F. ) ;
#167 = AXIS2_PLACEMENT_3D ( 'NONE', #108, #191, #201 ) ;
#168 = ADVANCED_FACE ( 'NONE', ( #46 ), #204, .T. ) ;
#169 = ORIENTED_EDGE ( 'NONE', *, *, #53, .F. ) ;
#170 = ORIENTED_EDGE ( 'NONE', *, *, #161, .F. ) ;
#171 = COORDINATED_UNIVERSAL_TIME_OFFSET ( 1, 0, .AHEAD. ) ;
#172 = DIRECTION ( 'NONE',  ( 0.000000000000000000, 0.000000000000000000, 1.000000000000000000 ) ) ;
#173 = COORDINATED_UNIVERSAL_TIME_OFFSET ( 1, 0, .AHEAD. ) ;
#174 = CALENDAR_DATE ( 2023, 13, 2 ) ;
#175 = DIRECTION ( 'NONE',  ( 0.000000000000000000, 0.000000000000000000, 1.000000000000000000 ) ) ;
#176 = DATE_TIME_ROLE ( 'classification_date' ) ;
#177 = APPROVAL_ROLE ( '' ) ;
#178 = CARTESIAN_POINT ( 'NONE',  ( 11.00000000000000000, 1.347111479062088405E-15, 7.000000000000000000 ) ) ;
#179 = DIRECTION ( 'NONE',  ( 1.000000000000000000, 0.000000000000000000, 0.000000000000000000 ) ) ;
#180 = PLANE ( 'NONE',  #13 ) ;
#181 = DIRECTION ( 'NONE',  ( 1.000000000000000000, 0.000000000000000000, 0.000000000000000000 ) ) ;
#182 =( NAMED_UNIT ( * ) SI_UNIT ( $, .STERADIAN. ) SOLID_ANGLE_UNIT ( ) );
#183 = LOCAL_TIME ( 11, 43, 31.00000000000000000, #38 ) ;
#184 = DIRECTION ( 'NONE',  ( 0.000000000000000000, 0.000000000000000000, 1.000000000000000000 ) ) ;
#185 = APPLICATION_PROTOCOL_DEFINITION ( 'international standard', 'config_control_design', 1994, #42 ) ;
#186 = COORDINATED_UNIVERSAL_TIME_OFFSET ( 1, 0, .AHEAD. ) ;
#187 = ORIENTED_EDGE ( 'NONE', *, *, #94, .T. ) ;
#188 = PERSON_AND_ORGANIZATION ( #75, #130 ) ;
#189 = ORIENTED_EDGE ( 'NONE', *, *, #53, .T. ) ;
#190 = EDGE_CURVE ( 'NONE', #74, #76, #128, .T. ) ;
#191 = DIRECTION ( 'NONE',  ( -0.000000000000000000, -0.000000000000000000, -1.000000000000000000 ) ) ;
#192 = APPROVAL_PERSON_ORGANIZATION ( #22, #199, #151 ) ;
#193 = ORIENTED_EDGE ( 'NONE', *, *, #190, .F. ) ;
#194 = ORIENTED_EDGE ( 'NONE', *, *, #25, .F. ) ;
#195 = DIRECTION ( 'NONE',  ( 1.000000000000000000, 0.000000000000000000, -0.000000000000000000 ) ) ;
#196 = VECTOR ( 'NONE', #157, 1000.000000000000000 ) ;
#197 = AXIS2_PLACEMENT_3D ( 'NONE', #219, #36, #152 ) ;
#198 = DIRECTION ( 'NONE',  ( 1.000000000000000000, 0.000000000000000000, -0.000000000000000000 ) ) ;
#199 = APPROVAL ( #255, 'NEURÈENÝ' ) ;
#200 = PERSON_AND_ORGANIZATION ( #75, #130 ) ;
#201 = DIRECTION ( 'NONE',  ( -1.000000000000000000, 0.000000000000000000, 0.000000000000000000 ) ) ;
#202 = AXIS2_PLACEMENT_3D ( 'NONE', #43, #243, #84 ) ;
#203 = DIRECTION ( 'NONE',  ( -1.000000000000000000, 0.000000000000000000, 0.000000000000000000 ) ) ;
#204 = CYLINDRICAL_SURFACE ( 'NONE', #202, 11.00000000000000000 ) ;
#205 = EDGE_CURVE ( 'NONE', #76, #74, #142, .T. ) ;
#206 = FACE_OUTER_BOUND ( 'NONE', #11, .T. ) ;
#207 = LOCAL_TIME ( 11, 43, 31.00000000000000000, #186 ) ;
#208 = DIRECTION ( 'NONE',  ( 1.000000000000000000, 0.000000000000000000, 0.000000000000000000 ) ) ;
#209 = ADVANCED_FACE ( 'NONE', ( #41 ), #8, .T. ) ;
#210 = DATE_AND_TIME ( #9, #19 ) ;
#211 = AXIS2_PLACEMENT_3D ( 'NONE', #101, #6, #85 ) ;
#212 = ORIENTED_EDGE ( 'NONE', *, *, #88, .T. ) ;
#213 = ORIENTED_EDGE ( 'NONE', *, *, #102, .T. ) ;
#214 = AXIS2_PLACEMENT_3D ( 'NONE', #238, #132, #133 ) ;
#215 = DATE_AND_TIME ( #117, #183 ) ;
#216 = ORIENTED_EDGE ( 'NONE', *, *, #156, .T. ) ;
#217 = PRODUCT_DEFINITION_SHAPE ( 'NONE', 'NONE',  #110 ) ;
#218 = UNCERTAINTY_MEASURE_WITH_UNIT (LENGTH_MEASURE( 1.000000000000000082E-05 ), #137, 'distance_accuracy_value', 'NONE');
#219 = CARTESIAN_POINT ( 'NONE',  ( 0.000000000000000000, 0.000000000000000000, 0.000000000000000000 ) ) ;
#220 = CIRCLE ( 'NONE', #66, 11.00000000000000000 ) ;
#221 = PERSON_AND_ORGANIZATION_ROLE ( 'design_supplier' ) ;
#222 = CARTESIAN_POINT ( 'NONE',  ( 11.00000000000000000, 1.347111479062088405E-15, 7.000000000000000000 ) ) ;
#223 = EDGE_CURVE ( 'NONE', #49, #14, #234, .T. ) ;
#224 = DIRECTION ( 'NONE',  ( -0.000000000000000000, -0.000000000000000000, -1.000000000000000000 ) ) ;
#225 = CARTESIAN_POINT ( 'NONE',  ( 0.000000000000000000, 0.000000000000000000, 160.0000000000000000 ) ) ;
#226 = LOCAL_TIME ( 11, 43, 31.00000000000000000, #171 ) ;
#227 = DIRECTION ( 'NONE',  ( 0.000000000000000000, 0.000000000000000000, 1.000000000000000000 ) ) ;
#228 = DIRECTION ( 'NONE',  ( 1.000000000000000000, 0.000000000000000000, 0.000000000000000000 ) ) ;
#229 = LOCAL_TIME ( 11, 43, 31.00000000000000000, #173 ) ;
#230 = ORIENTED_EDGE ( 'NONE', *, *, #205, .T. ) ;
#231 = VERTEX_POINT ( 'NONE', #83 ) ;
#232 = DIRECTION ( 'NONE',  ( 1.000000000000000000, 0.000000000000000000, 0.000000000000000000 ) ) ;
#233 = ORIENTED_EDGE ( 'NONE', *, *, #223, .T. ) ;
#234 = CIRCLE ( 'NONE', #37, 11.00000000000000000 ) ;
#235 = CALENDAR_DATE ( 2023, 13, 2 ) ;
#236 = EDGE_CURVE ( 'NONE', #56, #74, #3, .T. ) ;
#237 = SECURITY_CLASSIFICATION_LEVEL ( 'unclassified' ) ;
#238 = CARTESIAN_POINT ( 'NONE',  ( 0.000000000000000000, 0.000000000000000000, 160.0000000000000000 ) ) ;
#239 = CARTESIAN_POINT ( 'NONE',  ( 0.000000000000000000, 0.000000000000000000, 7.000000000000000000 ) ) ;
#240 = CARTESIAN_POINT ( 'NONE',  ( 7.000000000000000000, 8.572527594031473190E-16, 160.0000000000000000 ) ) ;
#241 = CYLINDRICAL_SURFACE ( 'NONE', #211, 11.00000000000000000 ) ;
#242 = EDGE_CURVE ( 'NONE', #109, #54, #220, .T. ) ;
#243 = DIRECTION ( 'NONE',  ( -0.000000000000000000, -0.000000000000000000, -1.000000000000000000 ) ) ;
#244 = EDGE_LOOP ( 'NONE', ( #187, #189 ) ) ;
#245 = MECHANICAL_CONTEXT ( 'NONE', #42, 'mechanical' ) ;
#246 = FACE_OUTER_BOUND ( 'NONE', #143, .T. ) ;
#247 = DIRECTION ( 'NONE',  ( 0.000000000000000000, 0.000000000000000000, 1.000000000000000000 ) ) ;
#248 = EDGE_LOOP ( 'NONE', ( #52, #213 ) ) ;
#249 = CARTESIAN_POINT ( 'NONE',  ( 0.000000000000000000, 0.000000000000000000, 0.000000000000000000 ) ) ;
#250 = PRODUCT ( '3b73', '3b73', '', ( #245 ) ) ;
#251 = CARTESIAN_POINT ( 'NONE',  ( -7.000000000000000000, 0.000000000000000000, 7.000000000000000000 ) ) ;
#252 = CIRCLE ( 'NONE', #99, 11.00000000000000000 ) ;
#253 = ADVANCED_FACE ( 'NONE', ( #206 ), #241, .T. ) ;
#254 = PERSON_AND_ORGANIZATION ( #75, #130 ) ;
#255 = APPROVAL_STATUS ( 'not_yet_approved' ) ;
ENDSEC;
END-ISO-10303-21;
