ISO-10303-21;
HEADER;
FILE_DESCRIPTION (( 'STEP AP203' ),
    '1' );
FILE_NAME ('48dc.STEP',
    '2022-07-07T17:41:08',
    ( '' ),
    ( '' ),
    'SwSTEP 2.0',
    'SolidWorks 2019',
    '' );
FILE_SCHEMA (( 'CONFIG_CONTROL_DESIGN' ));
ENDSEC;

DATA;
#1 = DIRECTION ( 'NONE',  ( 0.000000000000000000, 0.000000000000000000, 1.000000000000000000 ) ) ;
#2 = CYLINDRICAL_SURFACE ( 'NONE', #84, 3.000000000000000444 ) ;
#3 = PLANE ( 'NONE',  #161 ) ;
#4 = ORIENTED_EDGE ( 'NONE', *, *, #121, .T. ) ;
#5 = CALENDAR_DATE ( 2022, 7, 7 ) ;
#6 = CIRCLE ( 'NONE', #190, 3.000000000000000444 ) ;
#7 = EDGE_CURVE ( 'NONE', #228, #213, #203, .T. ) ;
#8 = AXIS2_PLACEMENT_3D ( 'NONE', #126, #12, #90 ) ;
#9 = PERSON_AND_ORGANIZATION ( #165, #194 ) ;
#10 = AXIS2_PLACEMENT_3D ( 'NONE', #173, #134, #77 ) ;
#11 = APPLICATION_PROTOCOL_DEFINITION ( 'international standard', 'config_control_design', 1994, #246 ) ;
#12 = DIRECTION ( 'NONE',  ( 0.000000000000000000, 0.000000000000000000, 1.000000000000000000 ) ) ;
#13 = DIRECTION ( 'NONE',  ( -0.000000000000000000, -0.000000000000000000, -1.000000000000000000 ) ) ;
#14 = VERTEX_POINT ( 'NONE', #37 ) ;
#15 = LINE ( 'NONE', #81, #65 ) ;
#16 = ADVANCED_FACE ( 'NONE', ( #156 ), #2, .T. ) ;
#17 = ORIENTED_EDGE ( 'NONE', *, *, #7, .T. ) ;
#18 = PERSON_AND_ORGANIZATION_ROLE ( 'creator' ) ;
#19 = CARTESIAN_POINT ( 'NONE',  ( 0.000000000000000000, 0.000000000000000000, 0.000000000000000000 ) ) ;
#20 = SECURITY_CLASSIFICATION ( '', '', #217 ) ;
#21 = ORIENTED_EDGE ( 'NONE', *, *, #87, .F. ) ;
#22 = AXIS2_PLACEMENT_3D ( 'NONE', #23, #212, #149 ) ;
#23 = CARTESIAN_POINT ( 'NONE',  ( 0.000000000000000000, 0.000000000000000000, 130.0000000000000000 ) ) ;
#24 = ORIENTED_EDGE ( 'NONE', *, *, #147, .F. ) ;
#25 = DIRECTION ( 'NONE',  ( 0.000000000000000000, 0.000000000000000000, 1.000000000000000000 ) ) ;
#26 =( GEOMETRIC_REPRESENTATION_CONTEXT ( 3 ) GLOBAL_UNCERTAINTY_ASSIGNED_CONTEXT ( ( #141 ) ) GLOBAL_UNIT_ASSIGNED_CONTEXT ( ( #164, #146, #29 ) ) REPRESENTATION_CONTEXT ( 'NONE', 'WORKASPACE' ) );
#27 = AXIS2_PLACEMENT_3D ( 'NONE', #209, #1, #94 ) ;
#28 = APPROVAL_PERSON_ORGANIZATION ( #251, #70, #211 ) ;
#29 =( NAMED_UNIT ( * ) SI_UNIT ( $, .STERADIAN. ) SOLID_ANGLE_UNIT ( ) );
#30 = CYLINDRICAL_SURFACE ( 'NONE', #196, 6.000000000000000888 ) ;
#31 = PRODUCT_DEFINITION ( 'NEZNÁMÝ', '', #181, #71 ) ;
#32 = DIRECTION ( 'NONE',  ( -0.000000000000000000, -0.000000000000000000, -1.000000000000000000 ) ) ;
#33 = ORIENTED_EDGE ( 'NONE', *, *, #147, .T. ) ;
#34 = APPROVAL_ROLE ( '' ) ;
#35 = ORIENTED_EDGE ( 'NONE', *, *, #139, .F. ) ;
#36 = PERSON_AND_ORGANIZATION_ROLE ( 'classification_officer' ) ;
#37 = CARTESIAN_POINT ( 'NONE',  ( -3.000000000000000444, 0.000000000000000000, 130.0000000000000000 ) ) ;
#38 = DIRECTION ( 'NONE',  ( -0.000000000000000000, -0.000000000000000000, -1.000000000000000000 ) ) ;
#39 = ORIENTED_EDGE ( 'NONE', *, *, #100, .T. ) ;
#40 = PRODUCT_DEFINITION_SHAPE ( 'NONE', 'NONE',  #31 ) ;
#41 = APPROVAL_STATUS ( 'not_yet_approved' ) ;
#42 = LOCAL_TIME ( 19, 41, 8.000000000000000000, #143 ) ;
#43 = EDGE_CURVE ( 'NONE', #55, #131, #98, .T. ) ;
#44 = DATE_AND_TIME ( #208, #247 ) ;
#45 = AXIS2_PLACEMENT_3D ( 'NONE', #136, #38, #235 ) ;
#46 = ADVANCED_FACE ( 'NONE', ( #191 ), #113, .T. ) ;
#47 = CARTESIAN_POINT ( 'NONE',  ( 0.000000000000000000, 0.000000000000000000, 0.000000000000000000 ) ) ;
#48 = CARTESIAN_POINT ( 'NONE',  ( 0.000000000000000000, 0.000000000000000000, 5.000000000000000000 ) ) ;
#49 = DIRECTION ( 'NONE',  ( -1.000000000000000000, 0.000000000000000000, 0.000000000000000000 ) ) ;
#50 = VECTOR ( 'NONE', #206, 1000.000000000000000 ) ;
#51 = DIRECTION ( 'NONE',  ( 1.000000000000000000, 0.000000000000000000, 0.000000000000000000 ) ) ;
#52 = AXIS2_PLACEMENT_3D ( 'NONE', #130, #218, #119 ) ;
#53 = ORIENTED_EDGE ( 'NONE', *, *, #254, .F. ) ;
#54 = DIRECTION ( 'NONE',  ( -1.000000000000000000, 0.000000000000000000, 0.000000000000000000 ) ) ;
#55 = VERTEX_POINT ( 'NONE', #188 ) ;
#56 = SHAPE_DEFINITION_REPRESENTATION ( #40, #184 ) ;
#57 = DIRECTION ( 'NONE',  ( 1.000000000000000000, 0.000000000000000000, 0.000000000000000000 ) ) ;
#58 = LOCAL_TIME ( 19, 41, 8.000000000000000000, #168 ) ;
#59 = CARTESIAN_POINT ( 'NONE',  ( 0.000000000000000000, 0.000000000000000000, 130.0000000000000000 ) ) ;
#60 = DIRECTION ( 'NONE',  ( -0.000000000000000000, -0.000000000000000000, -1.000000000000000000 ) ) ;
#61 = ORIENTED_EDGE ( 'NONE', *, *, #105, .F. ) ;
#62 = CYLINDRICAL_SURFACE ( 'NONE', #241, 3.000000000000000444 ) ;
#63 = ADVANCED_FACE ( 'NONE', ( #230 ), #3, .F. ) ;
#64 = EDGE_LOOP ( 'NONE', ( #35, #231 ) ) ;
#65 = VECTOR ( 'NONE', #155, 1000.000000000000000 ) ;
#66 = DATE_AND_TIME ( #5, #58 ) ;
#67 = CC_DESIGN_PERSON_AND_ORGANIZATION_ASSIGNMENT ( #96, #195, ( #181 ) ) ;
#68 = PERSON_AND_ORGANIZATION_ROLE ( 'design_owner' ) ;
#69 = APPROVAL_ROLE ( '' ) ;
#70 = APPROVAL ( #41, 'NEURÈENÝ' ) ;
#71 = DESIGN_CONTEXT ( 'detailed design', #246, 'design' ) ;
#72 = CARTESIAN_POINT ( 'NONE',  ( 6.000000000000000888, 7.347880794884120722E-16, 5.000000000000000000 ) ) ;
#73 = EDGE_LOOP ( 'NONE', ( #33, #207 ) ) ;
#74 = LINE ( 'NONE', #109, #205 ) ;
#75 = DIRECTION ( 'NONE',  ( 0.000000000000000000, 0.000000000000000000, 1.000000000000000000 ) ) ;
#76 = COORDINATED_UNIVERSAL_TIME_OFFSET ( 1, 0, .AHEAD. ) ;
#77 = DIRECTION ( 'NONE',  ( 1.000000000000000000, 0.000000000000000000, 0.000000000000000000 ) ) ;
#78 = DIRECTION ( 'NONE',  ( 1.000000000000000000, 0.000000000000000000, 0.000000000000000000 ) ) ;
#79 = PERSON_AND_ORGANIZATION ( #165, #194 ) ;
#80 = CARTESIAN_POINT ( 'NONE',  ( 0.000000000000000000, 0.000000000000000000, 0.000000000000000000 ) ) ;
#81 = CARTESIAN_POINT ( 'NONE',  ( 6.000000000000000888, 7.347880794884120722E-16, 5.000000000000000000 ) ) ;
#82 = CC_DESIGN_PERSON_AND_ORGANIZATION_ASSIGNMENT ( #239, #68, ( #219 ) ) ;
#83 = ORIENTED_EDGE ( 'NONE', *, *, #121, .F. ) ;
#84 = AXIS2_PLACEMENT_3D ( 'NONE', #59, #133, #114 ) ;
#85 = PERSON_AND_ORGANIZATION_ROLE ( 'creator' ) ;
#86 = APPROVAL_PERSON_ORGANIZATION ( #140, #160, #69 ) ;
#87 = EDGE_CURVE ( 'NONE', #250, #213, #101, .T. ) ;
#88 = CARTESIAN_POINT ( 'NONE',  ( -6.000000000000000888, 0.000000000000000000, 5.000000000000000000 ) ) ;
#89 = APPLICATION_CONTEXT ( 'configuration controlled 3d designs of mechanical parts and assemblies' ) ;
#90 = DIRECTION ( 'NONE',  ( 1.000000000000000000, 0.000000000000000000, 0.000000000000000000 ) ) ;
#91 = LINE ( 'NONE', #172, #145 ) ;
#92 = ORIENTED_EDGE ( 'NONE', *, *, #105, .T. ) ;
#93 = PERSON_AND_ORGANIZATION ( #165, #194 ) ;
#94 = DIRECTION ( 'NONE',  ( 1.000000000000000000, 0.000000000000000000, 0.000000000000000000 ) ) ;
#95 = EDGE_LOOP ( 'NONE', ( #83, #24, #226, #129 ) ) ;
#96 = PERSON_AND_ORGANIZATION ( #165, #194 ) ;
#97 = CARTESIAN_POINT ( 'NONE',  ( -3.000000000000000444, 0.000000000000000000, 5.000000000000000000 ) ) ;
#98 = CIRCLE ( 'NONE', #238, 3.000000000000000444 ) ;
#99 = DIRECTION ( 'NONE',  ( 0.000000000000000000, 0.000000000000000000, 1.000000000000000000 ) ) ;
#100 = EDGE_CURVE ( 'NONE', #213, #228, #110, .T. ) ;
#101 = LINE ( 'NONE', #249, #50 ) ;
#102 = CARTESIAN_POINT ( 'NONE',  ( 6.000000000000000888, 7.347880794884120722E-16, 0.000000000000000000 ) ) ;
#103 = COORDINATED_UNIVERSAL_TIME_OFFSET ( 1, 0, .AHEAD. ) ;
#104 = CALENDAR_DATE ( 2022, 7, 7 ) ;
#105 = EDGE_CURVE ( 'NONE', #253, #250, #223, .T. ) ;
#106 = APPROVAL_PERSON_ORGANIZATION ( #79, #108, #34 ) ;
#107 = PLANE ( 'NONE',  #118 ) ;
#108 = APPROVAL ( #171, 'NEURÈENÝ' ) ;
#109 = CARTESIAN_POINT ( 'NONE',  ( -3.000000000000000444, 0.000000000000000000, 130.0000000000000000 ) ) ;
#110 = CIRCLE ( 'NONE', #192, 6.000000000000000888 ) ;
#111 = ORIENTED_EDGE ( 'NONE', *, *, #43, .T. ) ;
#112 = ORIENTED_EDGE ( 'NONE', *, *, #182, .F. ) ;
#113 = PLANE ( 'NONE',  #22 ) ;
#114 = DIRECTION ( 'NONE',  ( -1.000000000000000000, 0.000000000000000000, 0.000000000000000000 ) ) ;
#115 = CLOSED_SHELL ( 'NONE', ( #16, #242, #200, #248, #63, #215, #46 ) ) ;
#116 = ORIENTED_EDGE ( 'NONE', *, *, #142, .T. ) ;
#117 = CC_DESIGN_APPROVAL ( #160, ( #31 ) ) ;
#118 = AXIS2_PLACEMENT_3D ( 'NONE', #125, #163, #244 ) ;
#119 = DIRECTION ( 'NONE',  ( 1.000000000000000000, 0.000000000000000000, 0.000000000000000000 ) ) ;
#120 = DIRECTION ( 'NONE',  ( 1.000000000000000000, 0.000000000000000000, 0.000000000000000000 ) ) ;
#121 = EDGE_CURVE ( 'NONE', #170, #55, #91, .T. ) ;
#122 = AXIS2_PLACEMENT_3D ( 'NONE', #174, #75, #78 ) ;
#123 = LOCAL_TIME ( 19, 41, 8.000000000000000000, #135 ) ;
#124 = CIRCLE ( 'NONE', #52, 6.000000000000000888 ) ;
#125 = CARTESIAN_POINT ( 'NONE',  ( 0.000000000000000000, 0.000000000000000000, 5.000000000000000000 ) ) ;
#126 = CARTESIAN_POINT ( 'NONE',  ( 0.000000000000000000, 0.000000000000000000, 130.0000000000000000 ) ) ;
#127 = CC_DESIGN_APPROVAL ( #70, ( #20 ) ) ;
#128 = CARTESIAN_POINT ( 'NONE',  ( -6.000000000000000888, 0.000000000000000000, 0.000000000000000000 ) ) ;
#129 = ORIENTED_EDGE ( 'NONE', *, *, #139, .T. ) ;
#130 = CARTESIAN_POINT ( 'NONE',  ( 0.000000000000000000, 0.000000000000000000, 5.000000000000000000 ) ) ;
#131 = VERTEX_POINT ( 'NONE', #97 ) ;
#132 = DIRECTION ( 'NONE',  ( 0.000000000000000000, 0.000000000000000000, 1.000000000000000000 ) ) ;
#133 = DIRECTION ( 'NONE',  ( -0.000000000000000000, -0.000000000000000000, -1.000000000000000000 ) ) ;
#134 = DIRECTION ( 'NONE',  ( 0.000000000000000000, 0.000000000000000000, 1.000000000000000000 ) ) ;
#135 = COORDINATED_UNIVERSAL_TIME_OFFSET ( 1, 0, .AHEAD. ) ;
#136 = CARTESIAN_POINT ( 'NONE',  ( 0.000000000000000000, 0.000000000000000000, 5.000000000000000000 ) ) ;
#137 = DATE_TIME_ROLE ( 'creation_date' ) ;
#138 = CC_DESIGN_APPROVAL ( #108, ( #181 ) ) ;
#139 = EDGE_CURVE ( 'NONE', #131, #55, #180, .T. ) ;
#140 = PERSON_AND_ORGANIZATION ( #165, #194 ) ;
#141 = UNCERTAINTY_MEASURE_WITH_UNIT (LENGTH_MEASURE( 1.000000000000000082E-05 ), #164, 'distance_accuracy_value', 'NONE');
#142 = EDGE_CURVE ( 'NONE', #253, #228, #15, .T. ) ;
#143 = COORDINATED_UNIVERSAL_TIME_OFFSET ( 1, 0, .AHEAD. ) ;
#144 = CALENDAR_DATE ( 2022, 7, 7 ) ;
#145 = VECTOR ( 'NONE', #32, 1000.000000000000000 ) ;
#146 =( NAMED_UNIT ( * ) PLANE_ANGLE_UNIT ( ) SI_UNIT ( $, .RADIAN. ) );
#147 = EDGE_CURVE ( 'NONE', #14, #170, #6, .T. ) ;
#148 = LOCAL_TIME ( 19, 41, 8.000000000000000000, #103 ) ;
#149 = DIRECTION ( 'NONE',  ( 1.000000000000000000, 0.000000000000000000, -0.000000000000000000 ) ) ;
#150 = ORIENTED_EDGE ( 'NONE', *, *, #100, .F. ) ;
#151 = DIRECTION ( 'NONE',  ( 1.000000000000000000, 0.000000000000000000, 0.000000000000000000 ) ) ;
#152 = ORIENTED_EDGE ( 'NONE', *, *, #7, .F. ) ;
#153 = CC_DESIGN_PERSON_AND_ORGANIZATION_ASSIGNMENT ( #175, #36, ( #20 ) ) ;
#154 = CALENDAR_DATE ( 2022, 7, 7 ) ;
#155 = DIRECTION ( 'NONE',  ( -0.000000000000000000, -0.000000000000000000, -1.000000000000000000 ) ) ;
#156 = FACE_OUTER_BOUND ( 'NONE', #167, .T. ) ;
#157 = EDGE_LOOP ( 'NONE', ( #150, #152 ) ) ;
#158 = APPROVAL_DATE_TIME ( #44, #108 ) ;
#159 = FACE_OUTER_BOUND ( 'NONE', #187, .T. ) ;
#160 = APPROVAL ( #162, 'NEURÈENÝ' ) ;
#161 = AXIS2_PLACEMENT_3D ( 'NONE', #80, #166, #186 ) ;
#162 = APPROVAL_STATUS ( 'not_yet_approved' ) ;
#163 = DIRECTION ( 'NONE',  ( 0.000000000000000000, 0.000000000000000000, 1.000000000000000000 ) ) ;
#164 =( LENGTH_UNIT ( ) NAMED_UNIT ( * ) SI_UNIT ( .MILLI., .METRE. ) );
#165 = PERSON ( 'NEURÈENÝ', 'NEURÈENÝ', 'NEURÈENÝ', ('NEURÈENÝ'), ('NEURÈENÝ'), ('NEURÈENÝ') ) ;
#166 = DIRECTION ( 'NONE',  ( 0.000000000000000000, 0.000000000000000000, 1.000000000000000000 ) ) ;
#167 = EDGE_LOOP ( 'NONE', ( #53, #4, #111, #112 ) ) ;
#168 = COORDINATED_UNIVERSAL_TIME_OFFSET ( 1, 0, .AHEAD. ) ;
#169 = CARTESIAN_POINT ( 'NONE',  ( 0.000000000000000000, 0.000000000000000000, 130.0000000000000000 ) ) ;
#170 = VERTEX_POINT ( 'NONE', #252 ) ;
#171 = APPROVAL_STATUS ( 'not_yet_approved' ) ;
#172 = CARTESIAN_POINT ( 'NONE',  ( 3.000000000000000444, 3.673940397442060361E-16, 130.0000000000000000 ) ) ;
#173 = CARTESIAN_POINT ( 'NONE',  ( 0.000000000000000000, 0.000000000000000000, 5.000000000000000000 ) ) ;
#174 = CARTESIAN_POINT ( 'NONE',  ( 0.000000000000000000, 0.000000000000000000, 0.000000000000000000 ) ) ;
#175 = PERSON_AND_ORGANIZATION ( #165, #194 ) ;
#176 = CC_DESIGN_PERSON_AND_ORGANIZATION_ASSIGNMENT ( #93, #18, ( #181 ) ) ;
#177 = FACE_OUTER_BOUND ( 'NONE', #210, .T. ) ;
#178 = MECHANICAL_CONTEXT ( 'NONE', #89, 'mechanical' ) ;
#179 = DATE_AND_TIME ( #104, #42 ) ;
#180 = CIRCLE ( 'NONE', #27, 3.000000000000000444 ) ;
#181 = PRODUCT_DEFINITION_FORMATION_WITH_SPECIFIED_SOURCE ( 'LIBOVOLNÝ', '', #219, .NOT_KNOWN. ) ;
#182 = EDGE_CURVE ( 'NONE', #14, #131, #74, .T. ) ;
#183 = FACE_OUTER_BOUND ( 'NONE', #234, .T. ) ;
#184 = ADVANCED_BREP_SHAPE_REPRESENTATION ( '48dc', ( #221, #243 ), #26 ) ;
#185 = ORIENTED_EDGE ( 'NONE', *, *, #222, .F. ) ;
#186 = DIRECTION ( 'NONE',  ( 1.000000000000000000, 0.000000000000000000, -0.000000000000000000 ) ) ;
#187 = EDGE_LOOP ( 'NONE', ( #216, #185, #193, #39 ) ) ;
#188 = CARTESIAN_POINT ( 'NONE',  ( 3.000000000000000444, 3.673940397442060361E-16, 5.000000000000000000 ) ) ;
#189 = CARTESIAN_POINT ( 'NONE',  ( 0.000000000000000000, 0.000000000000000000, 5.000000000000000000 ) ) ;
#190 = AXIS2_PLACEMENT_3D ( 'NONE', #169, #233, #151 ) ;
#191 = FACE_OUTER_BOUND ( 'NONE', #73, .T. ) ;
#192 = AXIS2_PLACEMENT_3D ( 'NONE', #19, #132, #57 ) ;
#193 = ORIENTED_EDGE ( 'NONE', *, *, #87, .T. ) ;
#194 = ORGANIZATION ( 'NEURÈENÝ', 'NEURÈENÝ', '' ) ;
#195 = PERSON_AND_ORGANIZATION_ROLE ( 'design_supplier' ) ;
#196 = AXIS2_PLACEMENT_3D ( 'NONE', #48, #201, #49 ) ;
#197 = CC_DESIGN_DATE_AND_TIME_ASSIGNMENT ( #179, #137, ( #31 ) ) ;
#198 = DATE_AND_TIME ( #144, #148 ) ;
#199 = APPROVAL_DATE_TIME ( #198, #160 ) ;
#200 = ADVANCED_FACE ( 'NONE', ( #159 ), #214, .T. ) ;
#201 = DIRECTION ( 'NONE',  ( -0.000000000000000000, -0.000000000000000000, -1.000000000000000000 ) ) ;
#202 = CC_DESIGN_DATE_AND_TIME_ASSIGNMENT ( #66, #232, ( #20 ) ) ;
#203 = CIRCLE ( 'NONE', #122, 6.000000000000000888 ) ;
#204 = FACE_BOUND ( 'NONE', #64, .T. ) ;
#205 = VECTOR ( 'NONE', #60, 1000.000000000000000 ) ;
#206 = DIRECTION ( 'NONE',  ( -0.000000000000000000, -0.000000000000000000, -1.000000000000000000 ) ) ;
#207 = ORIENTED_EDGE ( 'NONE', *, *, #254, .T. ) ;
#208 = CALENDAR_DATE ( 2022, 7, 7 ) ;
#209 = CARTESIAN_POINT ( 'NONE',  ( 0.000000000000000000, 0.000000000000000000, 5.000000000000000000 ) ) ;
#210 = EDGE_LOOP ( 'NONE', ( #61, #116, #17, #21 ) ) ;
#211 = APPROVAL_ROLE ( '' ) ;
#212 = DIRECTION ( 'NONE',  ( 0.000000000000000000, 0.000000000000000000, 1.000000000000000000 ) ) ;
#213 = VERTEX_POINT ( 'NONE', #128 ) ;
#214 = CYLINDRICAL_SURFACE ( 'NONE', #45, 6.000000000000000888 ) ;
#215 = ADVANCED_FACE ( 'NONE', ( #227 ), #62, .T. ) ;
#216 = ORIENTED_EDGE ( 'NONE', *, *, #142, .F. ) ;
#217 = SECURITY_CLASSIFICATION_LEVEL ( 'unclassified' ) ;
#218 = DIRECTION ( 'NONE',  ( 0.000000000000000000, 0.000000000000000000, 1.000000000000000000 ) ) ;
#219 = PRODUCT ( '48dc', '48dc', '', ( #178 ) ) ;
#220 = APPLICATION_PROTOCOL_DEFINITION ( 'international standard', 'config_control_design', 1994, #89 ) ;
#221 = MANIFOLD_SOLID_BREP ( 'Pøidat vysunutím3', #115 ) ;
#222 = EDGE_CURVE ( 'NONE', #250, #253, #124, .T. ) ;
#223 = CIRCLE ( 'NONE', #10, 6.000000000000000888 ) ;
#224 = CARTESIAN_POINT ( 'NONE',  ( 0.000000000000000000, 0.000000000000000000, 130.0000000000000000 ) ) ;
#225 = CC_DESIGN_PERSON_AND_ORGANIZATION_ASSIGNMENT ( #9, #85, ( #31 ) ) ;
#226 = ORIENTED_EDGE ( 'NONE', *, *, #182, .T. ) ;
#227 = FACE_OUTER_BOUND ( 'NONE', #95, .T. ) ;
#228 = VERTEX_POINT ( 'NONE', #102 ) ;
#229 = APPROVAL_DATE_TIME ( #255, #70 ) ;
#230 = FACE_OUTER_BOUND ( 'NONE', #157, .T. ) ;
#231 = ORIENTED_EDGE ( 'NONE', *, *, #43, .F. ) ;
#232 = DATE_TIME_ROLE ( 'classification_date' ) ;
#233 = DIRECTION ( 'NONE',  ( 0.000000000000000000, 0.000000000000000000, 1.000000000000000000 ) ) ;
#234 = EDGE_LOOP ( 'NONE', ( #236, #92 ) ) ;
#235 = DIRECTION ( 'NONE',  ( -1.000000000000000000, 0.000000000000000000, 0.000000000000000000 ) ) ;
#236 = ORIENTED_EDGE ( 'NONE', *, *, #222, .T. ) ;
#237 = CC_DESIGN_SECURITY_CLASSIFICATION ( #20, ( #181 ) ) ;
#238 = AXIS2_PLACEMENT_3D ( 'NONE', #189, #99, #51 ) ;
#239 = PERSON_AND_ORGANIZATION ( #165, #194 ) ;
#240 = PRODUCT_RELATED_PRODUCT_CATEGORY ( 'detail', '', ( #219 ) ) ;
#241 = AXIS2_PLACEMENT_3D ( 'NONE', #224, #13, #54 ) ;
#242 = ADVANCED_FACE ( 'NONE', ( #177 ), #30, .T. ) ;
#243 = AXIS2_PLACEMENT_3D ( 'NONE', #47, #25, #120 ) ;
#244 = DIRECTION ( 'NONE',  ( 1.000000000000000000, 0.000000000000000000, -0.000000000000000000 ) ) ;
#245 = CIRCLE ( 'NONE', #8, 3.000000000000000444 ) ;
#246 = APPLICATION_CONTEXT ( 'configuration controlled 3d designs of mechanical parts and assemblies' ) ;
#247 = LOCAL_TIME ( 19, 41, 8.000000000000000000, #76 ) ;
#248 = ADVANCED_FACE ( 'NONE', ( #204, #183 ), #107, .T. ) ;
#249 = CARTESIAN_POINT ( 'NONE',  ( -6.000000000000000888, 0.000000000000000000, 5.000000000000000000 ) ) ;
#250 = VERTEX_POINT ( 'NONE', #88 ) ;
#251 = PERSON_AND_ORGANIZATION ( #165, #194 ) ;
#252 = CARTESIAN_POINT ( 'NONE',  ( 3.000000000000000444, 3.673940397442060361E-16, 130.0000000000000000 ) ) ;
#253 = VERTEX_POINT ( 'NONE', #72 ) ;
#254 = EDGE_CURVE ( 'NONE', #170, #14, #245, .T. ) ;
#255 = DATE_AND_TIME ( #154, #123 ) ;
ENDSEC;
END-ISO-10303-21;
